ISO-10303-21;
HEADER;
FILE_DESCRIPTION(('CATIA V5 STEP Exchange','CAx-IF Rec.Pracs.--- Model Styling and Organization---1.5--- 2016-08-15','CAx-IF Rec.Pracs.---Supplemental Geometry---1.0---2011-11-01','CAx-IF Rec.Pracs.--- Composite Materials ---3.4---2017-06-13','CAx-IF Rec.Pracs.---Tessellated 3D Geometry---1.0---2015-12-17'),'2;1');

FILE_NAME('Q:\\Rendering\\SY\\SY090101.stp','2025-03-26T09:28:20+00:00',('none'),('none'),'CATIA Version 5-6 Release 2020 SP2','CATIA V5 STEP AP242 v2','none');

FILE_SCHEMA(('AP242_MANAGED_MODEL_BASED_3D_ENGINEERING_MIM_LF  {1 0 10303 442 1 1 4}'));

ENDSEC;
DATA;
#5=PRODUCT('SY090101','SY090101','',(#2)) ;
#2=PRODUCT_CONTEXT(' ',#1,'mechanical') ;
#1=APPLICATION_CONTEXT('managed model based 3d engineering') ;
#10=PRODUCT_DEFINITION('',' ',#6,#3) ;
#3=PRODUCT_DEFINITION_CONTEXT('part definition',#1,' ') ;
#11=PRODUCT_DEFINITION_SHAPE(' ',' ',#10) ;
#311=MECHANICAL_DESIGN_GEOMETRIC_PRESENTATION_REPRESENTATION(' ',(#29),#16) ;
#7=PRODUCT_CATEGORY('part','specification') ;
#19=SHAPE_REPRESENTATION(' ',(#18),#16) ;
#17=CARTESIAN_POINT(' ',(0.,0.,0.)) ;
#31=CARTESIAN_POINT('Axis2P3D Location',(1.13686837722E-13,80.,0.)) ;
#36=CARTESIAN_POINT('Line Origine',(1.13686837722E-13,70.,1.22464679915E-15)) ;
#40=CARTESIAN_POINT('Vertex',(-215.,70.,1.22464679915E-15)) ;
#42=CARTESIAN_POINT('Vertex',(215.,70.,1.22464679915E-15)) ;
#46=CARTESIAN_POINT('Control Point',(-215.,70.,8.881784197E-16)) ;
#47=CARTESIAN_POINT('Control Point',(-215.,70.,-1.14987188685)) ;
#48=CARTESIAN_POINT('Control Point',(-215.16527567,70.1652756695,-2.29974318935)) ;
#49=CARTESIAN_POINT('Control Point',(-215.495733754,70.4957342091,-3.38097453752)) ;
#50=CARTESIAN_POINT('Control Point',(-216.292819206,71.2928188471,-5.12600760665)) ;
#51=CARTESIAN_POINT('Control Point',(-217.368147557,72.3681478403,-6.52998727876)) ;
#52=CARTESIAN_POINT('Control Point',(-217.88242292,72.8824231193,-7.08163010467)) ;
#53=CARTESIAN_POINT('Control Point',(-219.481999336,74.481998948,-8.51480255981)) ;
#54=CARTESIAN_POINT('Control Point',(-221.28087012,76.2808708741,-9.41759515641)) ;
#55=CARTESIAN_POINT('Control Point',(-222.506682407,77.5066634796,-9.80572806582)) ;
#56=CARTESIAN_POINT('Control Point',(-223.75333909,78.753334058,-9.99999987561)) ;
#57=CARTESIAN_POINT('Control Point',(-225.,79.9999990022,-10.)) ;
#58=CARTESIAN_POINT('Vertex',(-225.,80.,-9.99999993347)) ;
#62=CARTESIAN_POINT('Control Point',(-225.,79.9999990022,-10.)) ;
#63=CARTESIAN_POINT('Control Point',(-225.963242663,80.9632447819,-10.0000000961)) ;
#64=CARTESIAN_POINT('Control Point',(-226.926487849,81.9264871979,-9.88401988822)) ;
#65=CARTESIAN_POINT('Control Point',(-227.88036557,82.880365951,-9.65207867099)) ;
#66=CARTESIAN_POINT('Control Point',(-229.645843582,84.6458432432,-8.98693483943)) ;
#67=CARTESIAN_POINT('Control Point',(-231.288006908,86.2880072082,-7.86074989068)) ;
#68=CARTESIAN_POINT('Control Point',(-232.022861221,87.0228617126,-7.22235978661)) ;
#69=CARTESIAN_POINT('Control Point',(-233.025960502,88.0259602663,-6.10336120572)) ;
#70=CARTESIAN_POINT('Control Point',(-233.836623034,88.8366231477,-4.72474939175)) ;
#71=CARTESIAN_POINT('Control Point',(-234.075989347,89.0759894555,-4.24999524484)) ;
#72=CARTESIAN_POINT('Control Point',(-234.529835178,89.5298350529,-3.17298222467)) ;
#73=CARTESIAN_POINT('Control Point',(-234.832302283,89.8323024269,-1.99276599671)) ;
#74=CARTESIAN_POINT('Control Point',(-234.944156542,89.9441565417,-1.33678350398)) ;
#75=CARTESIAN_POINT('Control Point',(-235.,90.,-0.66839185071)) ;
#76=CARTESIAN_POINT('Control Point',(-235.,90.,-2.30786829089E-15)) ;
#77=CARTESIAN_POINT('Vertex',(-235.,90.,0.)) ;
#80=CARTESIAN_POINT('Line Origine',(1.13686837722E-13,90.,-2.44929359829E-15)) ;
#84=CARTESIAN_POINT('Vertex',(235.,90.,0.)) ;
#88=CARTESIAN_POINT('Control Point',(225.,79.9999990022,-10.)) ;
#89=CARTESIAN_POINT('Control Point',(225.963242663,80.9632447819,-10.0000000961)) ;
#90=CARTESIAN_POINT('Control Point',(226.926487849,81.9264871979,-9.88401988822)) ;
#91=CARTESIAN_POINT('Control Point',(227.880365569,82.880365951,-9.65207867099)) ;
#92=CARTESIAN_POINT('Control Point',(229.645843582,84.6458432432,-8.98693483942)) ;
#93=CARTESIAN_POINT('Control Point',(231.288006908,86.2880072082,-7.86074989066)) ;
#94=CARTESIAN_POINT('Control Point',(232.022861221,87.0228617125,-7.22235978664)) ;
#95=CARTESIAN_POINT('Control Point',(233.025960502,88.0259602663,-6.10336120575)) ;
#96=CARTESIAN_POINT('Control Point',(233.836623034,88.8366231477,-4.72474939175)) ;
#97=CARTESIAN_POINT('Control Point',(234.075989347,89.0759894555,-4.24999524484)) ;
#98=CARTESIAN_POINT('Control Point',(234.529835178,89.5298350529,-3.17298222467)) ;
#99=CARTESIAN_POINT('Control Point',(234.832302283,89.8323024269,-1.99276599671)) ;
#100=CARTESIAN_POINT('Control Point',(234.944156542,89.9441565417,-1.33678350398)) ;
#101=CARTESIAN_POINT('Control Point',(235.,90.,-0.66839185071)) ;
#102=CARTESIAN_POINT('Control Point',(235.,90.,-2.30786829088E-15)) ;
#103=CARTESIAN_POINT('Vertex',(225.,80.,-9.99999993347)) ;
#107=CARTESIAN_POINT('Control Point',(215.,70.,-7.54951656745E-15)) ;
#108=CARTESIAN_POINT('Control Point',(215.,70.,-1.14987188691)) ;
#109=CARTESIAN_POINT('Control Point',(215.16527567,70.1652756695,-2.29974318947)) ;
#110=CARTESIAN_POINT('Control Point',(215.495733754,70.4957342091,-3.38097453742)) ;
#111=CARTESIAN_POINT('Control Point',(216.292819206,71.2928188471,-5.12600760662)) ;
#112=CARTESIAN_POINT('Control Point',(217.368147557,72.3681478403,-6.52998727878)) ;
#113=CARTESIAN_POINT('Control Point',(217.88242292,72.8824231193,-7.08163010466)) ;
#114=CARTESIAN_POINT('Control Point',(219.481999336,74.481998948,-8.51480255981)) ;
#115=CARTESIAN_POINT('Control Point',(221.28087012,76.2808708741,-9.41759515641)) ;
#116=CARTESIAN_POINT('Control Point',(222.506682407,77.5066634796,-9.80572806582)) ;
#117=CARTESIAN_POINT('Control Point',(223.75333909,78.753334058,-9.99999987561)) ;
#118=CARTESIAN_POINT('Control Point',(225.,79.9999990022,-10.)) ;
#129=CARTESIAN_POINT('Axis2P3D Location',(225.,45.,0.)) ;
#134=CARTESIAN_POINT('Line Origine',(235.,45.,-2.44929359829E-15)) ;
#138=CARTESIAN_POINT('Vertex',(235.,0.,0.)) ;
#141=CARTESIAN_POINT('Axis2P3D Location',(225.,0.,0.)) ;
#145=CARTESIAN_POINT('Vertex',(215.,0.,1.22464679915E-15)) ;
#148=CARTESIAN_POINT('Line Origine',(215.,45.,1.22464679915E-15)) ;
#161=CARTESIAN_POINT('Axis2P3D Location',(-225.,45.,0.)) ;
#166=CARTESIAN_POINT('Line Origine',(-235.,45.,0.)) ;
#170=CARTESIAN_POINT('Vertex',(-235.,0.,0.)) ;
#173=CARTESIAN_POINT('Axis2P3D Location',(-225.,0.,0.)) ;
#177=CARTESIAN_POINT('Vertex',(-215.,0.,1.22464679915E-15)) ;
#180=CARTESIAN_POINT('Line Origine',(-215.,45.,1.22464679915E-15)) ;
#186=CARTESIAN_POINT('Control Point',(-225.000000998,80.0000000002,10.)) ;
#187=CARTESIAN_POINT('Control Point',(-224.036755218,79.0367573375,10.0000000961)) ;
#188=CARTESIAN_POINT('Control Point',(-223.073512802,78.0735121513,9.88401988824)) ;
#189=CARTESIAN_POINT('Control Point',(-222.119634049,77.1196344305,9.65207867099)) ;
#190=CARTESIAN_POINT('Control Point',(-220.354156757,75.3541564184,8.98693483943)) ;
#191=CARTESIAN_POINT('Control Point',(-218.711992792,73.7119930921,7.86074989071)) ;
#192=CARTESIAN_POINT('Control Point',(-217.977138287,72.9771387784,7.2223597864)) ;
#193=CARTESIAN_POINT('Control Point',(-216.974039734,71.9740394977,6.10336120559)) ;
#194=CARTESIAN_POINT('Control Point',(-216.163376852,71.1633769656,4.72474939172)) ;
#195=CARTESIAN_POINT('Control Point',(-215.924010544,70.924010653,4.24999524471)) ;
#196=CARTESIAN_POINT('Control Point',(-215.470164947,70.470164822,3.17298222451)) ;
#197=CARTESIAN_POINT('Control Point',(-215.167697573,70.1676977171,1.99276599652)) ;
#198=CARTESIAN_POINT('Control Point',(-215.055843458,70.0558434583,1.33678350409)) ;
#199=CARTESIAN_POINT('Control Point',(-215.,70.,0.668391850767)) ;
#200=CARTESIAN_POINT('Control Point',(-215.,70.,1.41968987162E-15)) ;
#201=CARTESIAN_POINT('Vertex',(-225.,80.0000000002,9.99999993347)) ;
#205=CARTESIAN_POINT('Control Point',(-235.,90.,4.4408920985E-16)) ;
#206=CARTESIAN_POINT('Control Point',(-235.,90.,1.14987188694)) ;
#207=CARTESIAN_POINT('Control Point',(-234.83472433,89.8347243305,2.29974318954)) ;
#208=CARTESIAN_POINT('Control Point',(-234.504265791,89.5042662463,3.38097453745)) ;
#209=CARTESIAN_POINT('Control Point',(-233.707181153,88.7071807937,5.12600760665)) ;
#210=CARTESIAN_POINT('Control Point',(-232.63185216,87.631852443,6.5299872788)) ;
#211=CARTESIAN_POINT('Control Point',(-232.117576881,87.1175770801,7.08163010475)) ;
#212=CARTESIAN_POINT('Control Point',(-230.518001052,85.5180006641,8.5148025598)) ;
#213=CARTESIAN_POINT('Control Point',(-228.719129126,83.7191298798,9.41759515637)) ;
#214=CARTESIAN_POINT('Control Point',(-227.49333652,82.4933175934,9.8057280658)) ;
#215=CARTESIAN_POINT('Control Point',(-226.246665942,81.2466609102,9.99999987559)) ;
#216=CARTESIAN_POINT('Control Point',(-225.000000998,80.0000000002,10.)) ;
#226=CARTESIAN_POINT('Axis2P3D Location',(0.,0.,0.)) ;
#231=CARTESIAN_POINT('Axis2P3D Location',(-225.,0.,0.)) ;
#241=CARTESIAN_POINT('Axis2P3D Location',(225.,0.,0.)) ;
#252=CARTESIAN_POINT('Control Point',(235.,90.,0.)) ;
#253=CARTESIAN_POINT('Control Point',(235.,90.,1.14987188681)) ;
#254=CARTESIAN_POINT('Control Point',(234.83472433,89.8347243305,2.29974318928)) ;
#255=CARTESIAN_POINT('Control Point',(234.504265791,89.5042662462,3.3809745377)) ;
#256=CARTESIAN_POINT('Control Point',(233.707181153,88.7071807936,5.12600760679)) ;
#257=CARTESIAN_POINT('Control Point',(232.63185216,87.631852443,6.52998727885)) ;
#258=CARTESIAN_POINT('Control Point',(232.117576881,87.1175770801,7.08163010476)) ;
#259=CARTESIAN_POINT('Control Point',(230.518001052,85.518000664,8.51480255987)) ;
#260=CARTESIAN_POINT('Control Point',(228.719129126,83.7191298796,9.41759515647)) ;
#261=CARTESIAN_POINT('Control Point',(227.49333652,82.4933175931,9.80572806589)) ;
#262=CARTESIAN_POINT('Control Point',(226.246665942,81.2466609098,9.99999987565)) ;
#263=CARTESIAN_POINT('Control Point',(225.000000997,79.9999999997,10.)) ;
#264=CARTESIAN_POINT('Vertex',(225.,79.9999999997,9.99999993347)) ;
#268=CARTESIAN_POINT('Control Point',(225.000000997,79.9999999997,10.)) ;
#269=CARTESIAN_POINT('Control Point',(224.036755218,79.0367573371,10.0000000961)) ;
#270=CARTESIAN_POINT('Control Point',(223.073512802,78.0735121511,9.88401988817)) ;
#271=CARTESIAN_POINT('Control Point',(222.119634049,77.1196344303,9.65207867092)) ;
#272=CARTESIAN_POINT('Control Point',(220.354156757,75.3541564182,8.98693483933)) ;
#273=CARTESIAN_POINT('Control Point',(218.711992792,73.7119930919,7.86074989058)) ;
#274=CARTESIAN_POINT('Control Point',(217.977138287,72.9771387785,7.22235978653)) ;
#275=CARTESIAN_POINT('Control Point',(216.974039734,71.9740394977,6.10336120562)) ;
#276=CARTESIAN_POINT('Control Point',(216.163376852,71.1633769655,4.72474939161)) ;
#277=CARTESIAN_POINT('Control Point',(215.924010544,70.924010653,4.24999524476)) ;
#278=CARTESIAN_POINT('Control Point',(215.470164947,70.470164822,3.1729822246)) ;
#279=CARTESIAN_POINT('Control Point',(215.167697573,70.1676977172,1.99276599666)) ;
#280=CARTESIAN_POINT('Control Point',(215.055843458,70.0558434583,1.3367835039)) ;
#281=CARTESIAN_POINT('Control Point',(215.,70.,0.668391850669)) ;
#282=CARTESIAN_POINT('Control Point',(215.,70.,1.41968987086E-15)) ;
#8=PRODUCT_RELATED_PRODUCT_CATEGORY('part',$,(#5)) ;
#15=UNCERTAINTY_MEASURE_WITH_UNIT(LENGTH_MEASURE(0.005),#12,'distance_accuracy_value','CONFUSED CURVE UNCERTAINTY') ;
#29=STYLED_ITEM(' ',(#28),#21) ;
#28=PRESENTATION_STYLE_ASSIGNMENT((#27)) ;
#27=SURFACE_STYLE_USAGE(.BOTH.,#26) ;
#26=SURFACE_SIDE_STYLE(' ',(#25)) ;
#25=SURFACE_STYLE_FILL_AREA(#24) ;
#24=FILL_AREA_STYLE(' ',(#23)) ;
#23=FILL_AREA_STYLE_COLOUR(' ',#22) ;
#38=VECTOR('Line Direction',#37,1.) ;
#82=VECTOR('Line Direction',#81,1.) ;
#136=VECTOR('Line Direction',#135,1.) ;
#150=VECTOR('Line Direction',#149,1.) ;
#168=VECTOR('Line Direction',#167,1.) ;
#182=VECTOR('Line Direction',#181,1.) ;
#32=DIRECTION('Axis2P3D Direction',(1.,0.,0.)) ;
#33=DIRECTION('Axis2P3D XDirection',(0.,1.,0.)) ;
#37=DIRECTION('Vector Direction',(1.,0.,0.)) ;
#81=DIRECTION('Vector Direction',(1.,0.,0.)) ;
#130=DIRECTION('Axis2P3D Direction',(0.,-1.,0.)) ;
#131=DIRECTION('Axis2P3D XDirection',(1.,0.,0.)) ;
#135=DIRECTION('Vector Direction',(0.,-1.,0.)) ;
#142=DIRECTION('Axis2P3D Direction',(0.,-1.,0.)) ;
#149=DIRECTION('Vector Direction',(0.,-1.,0.)) ;
#162=DIRECTION('Axis2P3D Direction',(0.,1.,0.)) ;
#163=DIRECTION('Axis2P3D XDirection',(-1.,0.,0.)) ;
#167=DIRECTION('Vector Direction',(0.,1.,0.)) ;
#174=DIRECTION('Axis2P3D Direction',(0.,1.,0.)) ;
#181=DIRECTION('Vector Direction',(0.,1.,0.)) ;
#227=DIRECTION('Axis2P3D Direction',(0.,1.,-0.)) ;
#228=DIRECTION('Axis2P3D XDirection',(-1.,0.,0.)) ;
#232=DIRECTION('Axis2P3D Direction',(0.,1.,-0.)) ;
#242=DIRECTION('Axis2P3D Direction',(0.,1.,-0.)) ;
#310=SHAPE_REPRESENTATION_RELATIONSHIP(' ',' ',#19,#309) ;
#18=AXIS2_PLACEMENT_3D(' ',#17,$,$) ;
#34=AXIS2_PLACEMENT_3D('Cylinder Axis2P3D',#31,#32,#33) ;
#132=AXIS2_PLACEMENT_3D('Cylinder Axis2P3D',#129,#130,#131) ;
#143=AXIS2_PLACEMENT_3D('Circle Axis2P3D',#141,#142,$) ;
#164=AXIS2_PLACEMENT_3D('Cylinder Axis2P3D',#161,#162,#163) ;
#175=AXIS2_PLACEMENT_3D('Circle Axis2P3D',#173,#174,$) ;
#229=AXIS2_PLACEMENT_3D('Plane Axis2P3D',#226,#227,#228) ;
#233=AXIS2_PLACEMENT_3D('Circle Axis2P3D',#231,#232,$) ;
#243=AXIS2_PLACEMENT_3D('Circle Axis2P3D',#241,#242,$) ;
#39=LINE('Line',#36,#38) ;
#83=LINE('Line',#80,#82) ;
#137=LINE('Line',#134,#136) ;
#151=LINE('Line',#148,#150) ;
#169=LINE('Line',#166,#168) ;
#183=LINE('Line',#180,#182) ;
#144=CIRCLE('generated circle',#143,10.) ;
#176=CIRCLE('generated circle',#175,10.) ;
#234=CIRCLE('generated circle',#233,10.) ;
#244=CIRCLE('generated circle',#243,10.) ;
#230=PLANE('',#229) ;
#35=CYLINDRICAL_SURFACE('generated cylinder',#34,10.) ;
#133=CYLINDRICAL_SURFACE('generated cylinder',#132,10.) ;
#165=CYLINDRICAL_SURFACE('generated cylinder',#164,10.) ;
#44=EDGE_CURVE('',#41,#43,#39,.T.) ;
#60=EDGE_CURVE('',#59,#41,#45,.F.) ;
#79=EDGE_CURVE('',#78,#59,#61,.F.) ;
#86=EDGE_CURVE('',#78,#85,#83,.T.) ;
#105=EDGE_CURVE('',#85,#104,#87,.F.) ;
#119=EDGE_CURVE('',#104,#43,#106,.F.) ;
#140=EDGE_CURVE('',#139,#85,#137,.F.) ;
#147=EDGE_CURVE('',#146,#139,#144,.T.) ;
#152=EDGE_CURVE('',#146,#43,#151,.F.) ;
#172=EDGE_CURVE('',#171,#78,#169,.T.) ;
#179=EDGE_CURVE('',#171,#178,#176,.T.) ;
#184=EDGE_CURVE('',#178,#41,#183,.T.) ;
#203=EDGE_CURVE('',#202,#41,#185,.T.) ;
#217=EDGE_CURVE('',#78,#202,#204,.T.) ;
#235=EDGE_CURVE('',#178,#171,#234,.T.) ;
#245=EDGE_CURVE('',#139,#146,#244,.F.) ;
#266=EDGE_CURVE('',#85,#265,#251,.T.) ;
#283=EDGE_CURVE('',#265,#43,#267,.T.) ;
#30=CLOSED_SHELL('Closed Shell',(#128,#160,#225,#240,#250,#291,#299,#308)) ;
#121=ORIENTED_EDGE('',*,*,#44,.F.) ;
#122=ORIENTED_EDGE('',*,*,#60,.F.) ;
#123=ORIENTED_EDGE('',*,*,#79,.F.) ;
#124=ORIENTED_EDGE('',*,*,#86,.T.) ;
#125=ORIENTED_EDGE('',*,*,#105,.T.) ;
#126=ORIENTED_EDGE('',*,*,#119,.T.) ;
#154=ORIENTED_EDGE('',*,*,#140,.F.) ;
#155=ORIENTED_EDGE('',*,*,#147,.F.) ;
#156=ORIENTED_EDGE('',*,*,#152,.T.) ;
#157=ORIENTED_EDGE('',*,*,#119,.F.) ;
#158=ORIENTED_EDGE('',*,*,#105,.F.) ;
#219=ORIENTED_EDGE('',*,*,#172,.F.) ;
#220=ORIENTED_EDGE('',*,*,#179,.T.) ;
#221=ORIENTED_EDGE('',*,*,#184,.T.) ;
#222=ORIENTED_EDGE('',*,*,#203,.F.) ;
#223=ORIENTED_EDGE('',*,*,#217,.F.) ;
#237=ORIENTED_EDGE('',*,*,#235,.F.) ;
#238=ORIENTED_EDGE('',*,*,#179,.F.) ;
#247=ORIENTED_EDGE('',*,*,#245,.T.) ;
#248=ORIENTED_EDGE('',*,*,#147,.T.) ;
#285=ORIENTED_EDGE('',*,*,#152,.F.) ;
#286=ORIENTED_EDGE('',*,*,#245,.F.) ;
#287=ORIENTED_EDGE('',*,*,#140,.T.) ;
#288=ORIENTED_EDGE('',*,*,#266,.T.) ;
#289=ORIENTED_EDGE('',*,*,#283,.T.) ;
#293=ORIENTED_EDGE('',*,*,#184,.F.) ;
#294=ORIENTED_EDGE('',*,*,#235,.T.) ;
#295=ORIENTED_EDGE('',*,*,#172,.T.) ;
#296=ORIENTED_EDGE('',*,*,#79,.T.) ;
#297=ORIENTED_EDGE('',*,*,#60,.T.) ;
#301=ORIENTED_EDGE('',*,*,#203,.T.) ;
#302=ORIENTED_EDGE('',*,*,#44,.T.) ;
#303=ORIENTED_EDGE('',*,*,#283,.F.) ;
#304=ORIENTED_EDGE('',*,*,#266,.F.) ;
#305=ORIENTED_EDGE('',*,*,#86,.F.) ;
#306=ORIENTED_EDGE('',*,*,#217,.T.) ;
#120=EDGE_LOOP('',(#121,#122,#123,#124,#125,#126)) ;
#153=EDGE_LOOP('',(#154,#155,#156,#157,#158)) ;
#218=EDGE_LOOP('',(#219,#220,#221,#222,#223)) ;
#236=EDGE_LOOP('',(#237,#238)) ;
#246=EDGE_LOOP('',(#247,#248)) ;
#284=EDGE_LOOP('',(#285,#286,#287,#288,#289)) ;
#292=EDGE_LOOP('',(#293,#294,#295,#296,#297)) ;
#300=EDGE_LOOP('',(#301,#302,#303,#304,#305,#306)) ;
#21=MANIFOLD_SOLID_BREP('PartBody',#30) ;
#41=VERTEX_POINT('',#40) ;
#43=VERTEX_POINT('',#42) ;
#59=VERTEX_POINT('',#58) ;
#78=VERTEX_POINT('',#77) ;
#85=VERTEX_POINT('',#84) ;
#104=VERTEX_POINT('',#103) ;
#139=VERTEX_POINT('',#138) ;
#146=VERTEX_POINT('',#145) ;
#171=VERTEX_POINT('',#170) ;
#178=VERTEX_POINT('',#177) ;
#202=VERTEX_POINT('',#201) ;
#265=VERTEX_POINT('',#264) ;
#309=ADVANCED_BREP_SHAPE_REPRESENTATION('NONE',(#21),#16) ;
#128=ADVANCED_FACE('PartBody',(#127),#35,.T.) ;
#160=ADVANCED_FACE('PartBody',(#159),#133,.T.) ;
#225=ADVANCED_FACE('PartBody',(#224),#165,.T.) ;
#240=ADVANCED_FACE('PartBody',(#239),#230,.F.) ;
#250=ADVANCED_FACE('PartBody',(#249),#230,.F.) ;
#291=ADVANCED_FACE('PartBody',(#290),#133,.T.) ;
#299=ADVANCED_FACE('PartBody',(#298),#165,.T.) ;
#308=ADVANCED_FACE('PartBody',(#307),#35,.T.) ;
#4=APPLICATION_PROTOCOL_DEFINITION('international standard','ap242_managed_model_based_3d_engineering',2014,#1) ;
#45=B_SPLINE_CURVE_WITH_KNOTS('',5,(#46,#47,#48,#49,#50,#51,#52,#53,#54,#55,#56,#57),.UNSPECIFIED.,.F.,.U.,(6,3,3,6),(0.,8.13082208686,14.5449172399,27.0115507973),.UNSPECIFIED.) ;
#61=B_SPLINE_CURVE_WITH_KNOTS('',5,(#62,#63,#64,#65,#66,#67,#68,#69,#70,#71,#72,#73,#74,#75,#76),.UNSPECIFIED.,.F.,.U.,(6,3,3,3,6),(27.0115507973,36.6439963201,45.188468403,49.2931520545,54.0193961558),.UNSPECIFIED.) ;
#87=B_SPLINE_CURVE_WITH_KNOTS('',5,(#88,#89,#90,#91,#92,#93,#94,#95,#96,#97,#98,#99,#100,#101,#102),.UNSPECIFIED.,.F.,.U.,(6,3,3,3,6),(27.0115507978,36.6439963206,45.1884684037,49.2931520552,54.0193961565),.UNSPECIFIED.) ;
#106=B_SPLINE_CURVE_WITH_KNOTS('',5,(#107,#108,#109,#110,#111,#112,#113,#114,#115,#116,#117,#118),.UNSPECIFIED.,.F.,.U.,(6,3,3,6),(0.,8.13082208727,14.5449172403,27.0115507978),.UNSPECIFIED.) ;
#185=B_SPLINE_CURVE_WITH_KNOTS('',5,(#186,#187,#188,#189,#190,#191,#192,#193,#194,#195,#196,#197,#198,#199,#200),.UNSPECIFIED.,.F.,.U.,(6,3,3,3,6),(27.0115507971,36.6439963202,45.1884684023,49.2931520536,54.0193961553),.UNSPECIFIED.) ;
#204=B_SPLINE_CURVE_WITH_KNOTS('',5,(#205,#206,#207,#208,#209,#210,#211,#212,#213,#214,#215,#216),.UNSPECIFIED.,.F.,.U.,(6,3,3,6),(0.,8.1308220875,14.5449172404,27.0115507971),.UNSPECIFIED.) ;
#251=B_SPLINE_CURVE_WITH_KNOTS('',5,(#252,#253,#254,#255,#256,#257,#258,#259,#260,#261,#262,#263),.UNSPECIFIED.,.F.,.U.,(6,3,3,6),(0.,8.13082208658,14.5449172397,27.0115507972),.UNSPECIFIED.) ;
#267=B_SPLINE_CURVE_WITH_KNOTS('',5,(#268,#269,#270,#271,#272,#273,#274,#275,#276,#277,#278,#279,#280,#281,#282),.UNSPECIFIED.,.F.,.U.,(6,3,3,3,6),(27.0115507972,36.6439963195,45.1884684025,49.2931520541,54.0193961551),.UNSPECIFIED.) ;
#22=COLOUR_RGB('Colour',0.823529411765,0.823529411765,1.) ;
#127=FACE_OUTER_BOUND('',#120,.T.) ;
#159=FACE_OUTER_BOUND('',#153,.T.) ;
#224=FACE_OUTER_BOUND('',#218,.T.) ;
#239=FACE_OUTER_BOUND('',#236,.T.) ;
#249=FACE_OUTER_BOUND('',#246,.T.) ;
#290=FACE_OUTER_BOUND('',#284,.T.) ;
#298=FACE_OUTER_BOUND('',#292,.T.) ;
#307=FACE_OUTER_BOUND('',#300,.T.) ;
#9=PRODUCT_CATEGORY_RELATIONSHIP(' ',' ',#7,#8) ;
#6=PRODUCT_DEFINITION_FORMATION_WITH_SPECIFIED_SOURCE('00',' ',#5,.NOT_KNOWN.) ;
#20=SHAPE_DEFINITION_REPRESENTATION(#11,#19) ;
#12=(LENGTH_UNIT()NAMED_UNIT(*)SI_UNIT(.MILLI.,.METRE.)) ;
#13=(NAMED_UNIT(*)PLANE_ANGLE_UNIT()SI_UNIT($,.RADIAN.)) ;
#14=(NAMED_UNIT(*)SI_UNIT($,.STERADIAN.)SOLID_ANGLE_UNIT()) ;
#16=(GEOMETRIC_REPRESENTATION_CONTEXT(3)GLOBAL_UNCERTAINTY_ASSIGNED_CONTEXT((#15))GLOBAL_UNIT_ASSIGNED_CONTEXT((#12,#13,#14))REPRESENTATION_CONTEXT(' ',' ')) ;
ENDSEC;
END-ISO-10303-21;
