ISO-10303-21;
HEADER;
FILE_DESCRIPTION(('CATIA V5 STEP Exchange','CAx-IF Rec.Pracs.--- Model Styling and Organization---1.5--- 2016-08-15','CAx-IF Rec.Pracs.---Supplemental Geometry---1.0---2011-11-01','CAx-IF Rec.Pracs.--- Composite Materials ---3.4---2017-06-13','CAx-IF Rec.Pracs.---Tessellated 3D Geometry---1.0---2015-12-17'),'2;1');

FILE_NAME('Q:\\Rendering\\SY\\SY090400.stp','2025-03-26T09:27:14+00:00',('none'),('none'),'CATIA Version 5-6 Release 2020 SP2','CATIA V5 STEP AP242 v2','none');

FILE_SCHEMA(('AP242_MANAGED_MODEL_BASED_3D_ENGINEERING_MIM_LF  {1 0 10303 442 1 1 4}'));

ENDSEC;
DATA;
#5=PRODUCT('SY090400','SY090400','',(#2)) ;
#2=PRODUCT_CONTEXT(' ',#1,'mechanical') ;
#1=APPLICATION_CONTEXT('managed model based 3d engineering') ;
#10=PRODUCT_DEFINITION('',' ',#6,#3) ;
#3=PRODUCT_DEFINITION_CONTEXT('part definition',#1,' ') ;
#11=PRODUCT_DEFINITION_SHAPE(' ',' ',#10) ;
#451=MECHANICAL_DESIGN_GEOMETRIC_PRESENTATION_REPRESENTATION(' ',(#29,#312,#387),#16) ;
#7=PRODUCT_CATEGORY('part','specification') ;
#19=SHAPE_REPRESENTATION(' ',(#18),#16) ;
#17=CARTESIAN_POINT(' ',(0.,0.,0.)) ;
#31=CARTESIAN_POINT('Axis2P3D Location',(-102.423919678,60.,0.)) ;
#36=CARTESIAN_POINT('Axis2P3D Location',(-70.,60.,0.)) ;
#40=CARTESIAN_POINT('Vertex',(-80.,60.,0.)) ;
#42=CARTESIAN_POINT('Vertex',(-60.,60.,1.22464679915E-15)) ;
#45=CARTESIAN_POINT('Axis2P3D Location',(-70.,60.,-8.881784197E-16)) ;
#55=CARTESIAN_POINT('Axis2P3D Location',(-2.13162820728E-13,80.,0.)) ;
#60=CARTESIAN_POINT('Line Origine',(-2.13162820728E-13,70.,1.22464679915E-15)) ;
#64=CARTESIAN_POINT('Vertex',(-60.,70.,1.22464679915E-15)) ;
#66=CARTESIAN_POINT('Vertex',(60.,70.,1.22464679915E-15)) ;
#70=CARTESIAN_POINT('Control Point',(-60.,70.,8.881784197E-16)) ;
#71=CARTESIAN_POINT('Control Point',(-60.,70.,-1.14987188687)) ;
#72=CARTESIAN_POINT('Control Point',(-60.1652756695,70.1652756695,-2.2997431894)) ;
#73=CARTESIAN_POINT('Control Point',(-60.4957337537,70.4957342091,-3.38097453749)) ;
#74=CARTESIAN_POINT('Control Point',(-61.2928192063,71.2928188471,-5.12600760663)) ;
#75=CARTESIAN_POINT('Control Point',(-62.3681475569,72.3681478403,-6.52998727874)) ;
#76=CARTESIAN_POINT('Control Point',(-62.8824229198,72.8824231193,-7.08163010469)) ;
#77=CARTESIAN_POINT('Control Point',(-64.4819993358,74.481998948,-8.51480255976)) ;
#78=CARTESIAN_POINT('Control Point',(-66.2808701202,76.280870874,-9.41759515635)) ;
#79=CARTESIAN_POINT('Control Point',(-67.5066824066,77.5066634795,-9.80572806583)) ;
#80=CARTESIAN_POINT('Control Point',(-68.7533390899,78.753334058,-9.99999987561)) ;
#81=CARTESIAN_POINT('Control Point',(-70.,79.9999990022,-10.)) ;
#82=CARTESIAN_POINT('Vertex',(-70.,80.,-9.99999993347)) ;
#86=CARTESIAN_POINT('Control Point',(-70.,79.9999990022,-10.)) ;
#87=CARTESIAN_POINT('Control Point',(-70.9632426627,80.9632447819,-10.0000000961)) ;
#88=CARTESIAN_POINT('Control Point',(-71.9264878487,81.9264871979,-9.88401988821)) ;
#89=CARTESIAN_POINT('Control Point',(-72.8803655695,82.8803659511,-9.65207867097)) ;
#90=CARTESIAN_POINT('Control Point',(-74.6458435816,84.6458432432,-8.98693483943)) ;
#91=CARTESIAN_POINT('Control Point',(-76.2880069079,86.2880072081,-7.86074989072)) ;
#92=CARTESIAN_POINT('Control Point',(-77.0228612215,87.0228617126,-7.22235978655)) ;
#93=CARTESIAN_POINT('Control Point',(-78.0259605022,88.0259602663,-6.1033612057)) ;
#94=CARTESIAN_POINT('Control Point',(-78.8366230344,88.8366231477,-4.72474939178)) ;
#95=CARTESIAN_POINT('Control Point',(-79.0759893469,89.0759894556,-4.24999524482)) ;
#96=CARTESIAN_POINT('Control Point',(-79.5298351779,89.5298350529,-3.17298222466)) ;
#97=CARTESIAN_POINT('Control Point',(-79.8323022828,89.8323024269,-1.99276599672)) ;
#98=CARTESIAN_POINT('Control Point',(-79.9441565417,89.9441565417,-1.33678350397)) ;
#99=CARTESIAN_POINT('Control Point',(-80.,90.,-0.668391850704)) ;
#100=CARTESIAN_POINT('Control Point',(-80.,90.,6.57391590616E-15)) ;
#101=CARTESIAN_POINT('Vertex',(-80.,90.,0.)) ;
#104=CARTESIAN_POINT('Line Origine',(-2.13162820728E-13,90.,-2.44929359829E-15)) ;
#108=CARTESIAN_POINT('Vertex',(80.,90.,0.)) ;
#112=CARTESIAN_POINT('Control Point',(70.,79.9999990022,-10.)) ;
#113=CARTESIAN_POINT('Control Point',(70.9632426626,80.9632447819,-10.0000000961)) ;
#114=CARTESIAN_POINT('Control Point',(71.9264878487,81.926487198,-9.88401988822)) ;
#115=CARTESIAN_POINT('Control Point',(72.8803655695,82.880365951,-9.65207867099)) ;
#116=CARTESIAN_POINT('Control Point',(74.6458435817,84.6458432432,-8.98693483943)) ;
#117=CARTESIAN_POINT('Control Point',(76.288006908,86.2880072082,-7.86074989067)) ;
#118=CARTESIAN_POINT('Control Point',(77.0228612214,87.0228617126,-7.22235978662)) ;
#119=CARTESIAN_POINT('Control Point',(78.0259605022,88.0259602663,-6.10336120573)) ;
#120=CARTESIAN_POINT('Control Point',(78.8366230344,88.8366231477,-4.72474939174)) ;
#121=CARTESIAN_POINT('Control Point',(79.0759893469,89.0759894555,-4.24999524485)) ;
#122=CARTESIAN_POINT('Control Point',(79.5298351779,89.5298350529,-3.17298222468)) ;
#123=CARTESIAN_POINT('Control Point',(79.8323022828,89.8323024269,-1.99276599673)) ;
#124=CARTESIAN_POINT('Control Point',(79.9441565417,89.9441565417,-1.33678350396)) ;
#125=CARTESIAN_POINT('Control Point',(80.,90.,-0.6683918507)) ;
#126=CARTESIAN_POINT('Control Point',(80.,90.,-2.44249065418E-15)) ;
#127=CARTESIAN_POINT('Vertex',(70.,80.,-9.99999993347)) ;
#131=CARTESIAN_POINT('Control Point',(60.,70.,-3.5527136788E-15)) ;
#132=CARTESIAN_POINT('Control Point',(60.,70.,-1.14987188678)) ;
#133=CARTESIAN_POINT('Control Point',(60.1652756695,70.1652756695,-2.29974318922)) ;
#134=CARTESIAN_POINT('Control Point',(60.4957337538,70.4957342092,-3.38097453764)) ;
#135=CARTESIAN_POINT('Control Point',(61.2928192064,71.2928188472,-5.12600760669)) ;
#136=CARTESIAN_POINT('Control Point',(62.3681475569,72.3681478403,-6.52998727875)) ;
#137=CARTESIAN_POINT('Control Point',(62.8824229198,72.8824231193,-7.08163010469)) ;
#138=CARTESIAN_POINT('Control Point',(64.4819993359,74.481998948,-8.51480255981)) ;
#139=CARTESIAN_POINT('Control Point',(66.2808701203,76.2808708741,-9.41759515641)) ;
#140=CARTESIAN_POINT('Control Point',(67.5066824067,77.5066634796,-9.80572806582)) ;
#141=CARTESIAN_POINT('Control Point',(68.7533390899,78.753334058,-9.99999987561)) ;
#142=CARTESIAN_POINT('Control Point',(70.,79.9999990022,-10.)) ;
#153=CARTESIAN_POINT('Axis2P3D Location',(70.,45.,0.)) ;
#158=CARTESIAN_POINT('Line Origine',(60.,45.,1.22464679915E-15)) ;
#162=CARTESIAN_POINT('Vertex',(60.,60.,1.22464679915E-15)) ;
#165=CARTESIAN_POINT('Line Origine',(80.,45.,-2.44929359829E-15)) ;
#169=CARTESIAN_POINT('Vertex',(80.,60.,0.)) ;
#172=CARTESIAN_POINT('Axis2P3D Location',(70.,60.,0.)) ;
#186=CARTESIAN_POINT('Control Point',(80.,90.,4.4408920985E-16)) ;
#187=CARTESIAN_POINT('Control Point',(80.,90.,1.14987188693)) ;
#188=CARTESIAN_POINT('Control Point',(79.8347243305,89.8347243305,2.29974318952)) ;
#189=CARTESIAN_POINT('Control Point',(79.5042657909,89.5042662463,3.3809745375)) ;
#190=CARTESIAN_POINT('Control Point',(78.7071811528,88.7071807936,5.1260076067)) ;
#191=CARTESIAN_POINT('Control Point',(77.6318521596,87.631852443,6.52998727884)) ;
#192=CARTESIAN_POINT('Control Point',(77.1175768806,87.1175770801,7.08163010477)) ;
#193=CARTESIAN_POINT('Control Point',(75.5180010519,85.518000664,8.51480255986)) ;
#194=CARTESIAN_POINT('Control Point',(73.7191291258,83.7191298796,9.41759515645)) ;
#195=CARTESIAN_POINT('Control Point',(72.4933365202,82.4933175932,9.80572806587)) ;
#196=CARTESIAN_POINT('Control Point',(71.2466659418,81.2466609099,9.99999987564)) ;
#197=CARTESIAN_POINT('Control Point',(70.0000009976,79.9999999998,10.)) ;
#198=CARTESIAN_POINT('Vertex',(69.9999999998,79.9999999998,9.99999993347)) ;
#202=CARTESIAN_POINT('Control Point',(70.0000009976,79.9999999998,10.)) ;
#203=CARTESIAN_POINT('Control Point',(69.0367552179,79.0367573372,10.0000000961)) ;
#204=CARTESIAN_POINT('Control Point',(68.0735128019,78.0735121511,9.88401988818)) ;
#205=CARTESIAN_POINT('Control Point',(67.1196340488,77.1196344303,9.65207867094)) ;
#206=CARTESIAN_POINT('Control Point',(65.3541567566,75.3541564182,8.98693483935)) ;
#207=CARTESIAN_POINT('Control Point',(63.7119927917,73.7119930919,7.86074989059)) ;
#208=CARTESIAN_POINT('Control Point',(62.9771382873,72.9771387785,7.22235978652)) ;
#209=CARTESIAN_POINT('Control Point',(61.9740397337,71.9740394977,6.10336120563)) ;
#210=CARTESIAN_POINT('Control Point',(61.1633768522,71.1633769656,4.72474939165)) ;
#211=CARTESIAN_POINT('Control Point',(60.9240105444,70.924010653,4.24999524471)) ;
#212=CARTESIAN_POINT('Control Point',(60.4701649471,70.470164822,3.17298222456)) ;
#213=CARTESIAN_POINT('Control Point',(60.1676975731,70.1676977171,1.99276599662)) ;
#214=CARTESIAN_POINT('Control Point',(60.0558434583,70.0558434583,1.33678350394)) ;
#215=CARTESIAN_POINT('Control Point',(60.,70.,0.668391850689)) ;
#216=CARTESIAN_POINT('Control Point',(60.,70.,1.41968987102E-15)) ;
#218=CARTESIAN_POINT('Axis2P3D Location',(70.,60.,0.)) ;
#237=CARTESIAN_POINT('Control Point',(-70.,80.0000009978,10.)) ;
#238=CARTESIAN_POINT('Control Point',(-69.0367573373,79.0367552181,10.0000000961)) ;
#239=CARTESIAN_POINT('Control Point',(-68.0735121512,78.073512802,9.88401988821)) ;
#240=CARTESIAN_POINT('Control Point',(-67.1196344304,77.1196340489,9.65207867096)) ;
#241=CARTESIAN_POINT('Control Point',(-65.3541564182,75.3541567567,8.98693483937)) ;
#242=CARTESIAN_POINT('Control Point',(-63.7119930919,73.7119927917,7.86074989059)) ;
#243=CARTESIAN_POINT('Control Point',(-62.9771387785,72.9771382873,7.22235978651)) ;
#244=CARTESIAN_POINT('Control Point',(-61.9740394977,71.9740397336,6.10336120561)) ;
#245=CARTESIAN_POINT('Control Point',(-61.1633769656,71.1633768522,4.72474939162)) ;
#246=CARTESIAN_POINT('Control Point',(-60.924010653,70.9240105444,4.24999524474)) ;
#247=CARTESIAN_POINT('Control Point',(-60.470164822,70.4701649471,3.17298222458)) ;
#248=CARTESIAN_POINT('Control Point',(-60.1676977171,70.1676975731,1.99276599663)) ;
#249=CARTESIAN_POINT('Control Point',(-60.0558434583,70.0558434583,1.33678350394)) ;
#250=CARTESIAN_POINT('Control Point',(-60.,70.,0.668391850688)) ;
#251=CARTESIAN_POINT('Control Point',(-60.,70.,1.64173447594E-15)) ;
#252=CARTESIAN_POINT('Vertex',(-70.0000000001,80.0000000001,9.99999993347)) ;
#256=CARTESIAN_POINT('Control Point',(-80.,90.,4.4408920985E-16)) ;
#257=CARTESIAN_POINT('Control Point',(-80.,90.,1.14987188688)) ;
#258=CARTESIAN_POINT('Control Point',(-79.8347243305,89.8347243305,2.29974318942)) ;
#259=CARTESIAN_POINT('Control Point',(-79.5042662462,89.5042657909,3.38097453758)) ;
#260=CARTESIAN_POINT('Control Point',(-78.7071807936,88.7071811528,5.12600760673)) ;
#261=CARTESIAN_POINT('Control Point',(-77.631852443,87.6318521596,6.52998727884)) ;
#262=CARTESIAN_POINT('Control Point',(-77.1175770801,87.1175768806,7.08163010477)) ;
#263=CARTESIAN_POINT('Control Point',(-75.5180006641,85.5180010519,8.51480255984)) ;
#264=CARTESIAN_POINT('Control Point',(-73.7191298797,83.7191291259,9.41759515641)) ;
#265=CARTESIAN_POINT('Control Point',(-72.4933175933,82.4933365204,9.80572806583)) ;
#266=CARTESIAN_POINT('Control Point',(-71.2466609101,81.246665942,9.99999987561)) ;
#267=CARTESIAN_POINT('Control Point',(-70.,80.0000009978,10.)) ;
#278=CARTESIAN_POINT('Axis2P3D Location',(-70.,45.,0.)) ;
#283=CARTESIAN_POINT('Line Origine',(-60.,45.,1.22464679915E-15)) ;
#288=CARTESIAN_POINT('Line Origine',(-80.,45.,0.)) ;
#314=CARTESIAN_POINT('Axis2P3D Location',(93.4370117187,59.,0.)) ;
#319=CARTESIAN_POINT('Axis2P3D Location',(70.,59.,-8.881784197E-16)) ;
#323=CARTESIAN_POINT('Vertex',(60.,59.,1.22464679915E-15)) ;
#325=CARTESIAN_POINT('Vertex',(80.,59.,0.)) ;
#328=CARTESIAN_POINT('Axis2P3D Location',(70.,59.,0.)) ;
#338=CARTESIAN_POINT('Axis2P3D Location',(0.,0.,0.)) ;
#343=CARTESIAN_POINT('Axis2P3D Location',(70.,0.,0.)) ;
#347=CARTESIAN_POINT('Vertex',(80.,0.,0.)) ;
#349=CARTESIAN_POINT('Vertex',(60.,0.,1.22464679915E-15)) ;
#352=CARTESIAN_POINT('Axis2P3D Location',(70.,0.,0.)) ;
#362=CARTESIAN_POINT('Line Origine',(80.,45.,-2.44929359829E-15)) ;
#367=CARTESIAN_POINT('Line Origine',(60.,45.,1.22464679915E-15)) ;
#389=CARTESIAN_POINT('Axis2P3D Location',(-70.,59.,8.881784197E-16)) ;
#393=CARTESIAN_POINT('Vertex',(-60.,59.,1.22464679915E-15)) ;
#395=CARTESIAN_POINT('Vertex',(-80.,59.,0.)) ;
#398=CARTESIAN_POINT('Axis2P3D Location',(-70.,59.,1.7763568394E-15)) ;
#408=CARTESIAN_POINT('Axis2P3D Location',(-70.,0.,0.)) ;
#412=CARTESIAN_POINT('Vertex',(-60.,0.,1.22464679915E-15)) ;
#414=CARTESIAN_POINT('Vertex',(-80.,0.,0.)) ;
#417=CARTESIAN_POINT('Axis2P3D Location',(-70.,0.,0.)) ;
#427=CARTESIAN_POINT('Line Origine',(-80.,45.,0.)) ;
#432=CARTESIAN_POINT('Line Origine',(-60.,45.,1.22464679915E-15)) ;
#8=PRODUCT_RELATED_PRODUCT_CATEGORY('part',$,(#5)) ;
#15=UNCERTAINTY_MEASURE_WITH_UNIT(LENGTH_MEASURE(0.005),#12,'distance_accuracy_value','CONFUSED CURVE UNCERTAINTY') ;
#29=STYLED_ITEM(' ',(#28),#21) ;
#312=STYLED_ITEM(' ',(#28),#311) ;
#387=STYLED_ITEM(' ',(#28),#386) ;
#28=PRESENTATION_STYLE_ASSIGNMENT((#27)) ;
#27=SURFACE_STYLE_USAGE(.BOTH.,#26) ;
#26=SURFACE_SIDE_STYLE(' ',(#25)) ;
#25=SURFACE_STYLE_FILL_AREA(#24) ;
#24=FILL_AREA_STYLE(' ',(#23)) ;
#23=FILL_AREA_STYLE_COLOUR(' ',#22) ;
#62=VECTOR('Line Direction',#61,1.) ;
#106=VECTOR('Line Direction',#105,1.) ;
#160=VECTOR('Line Direction',#159,1.) ;
#167=VECTOR('Line Direction',#166,1.) ;
#285=VECTOR('Line Direction',#284,1.) ;
#290=VECTOR('Line Direction',#289,1.) ;
#364=VECTOR('Line Direction',#363,1.) ;
#369=VECTOR('Line Direction',#368,1.) ;
#429=VECTOR('Line Direction',#428,1.) ;
#434=VECTOR('Line Direction',#433,1.) ;
#32=DIRECTION('Axis2P3D Direction',(-0.,1.,0.)) ;
#33=DIRECTION('Axis2P3D XDirection',(1.,0.,0.)) ;
#37=DIRECTION('Axis2P3D Direction',(-0.,1.,0.)) ;
#46=DIRECTION('Axis2P3D Direction',(-0.,1.,0.)) ;
#56=DIRECTION('Axis2P3D Direction',(1.,0.,0.)) ;
#57=DIRECTION('Axis2P3D XDirection',(0.,1.,0.)) ;
#61=DIRECTION('Vector Direction',(1.,0.,0.)) ;
#105=DIRECTION('Vector Direction',(1.,0.,0.)) ;
#154=DIRECTION('Axis2P3D Direction',(0.,-1.,0.)) ;
#155=DIRECTION('Axis2P3D XDirection',(1.,0.,0.)) ;
#159=DIRECTION('Vector Direction',(0.,-1.,0.)) ;
#166=DIRECTION('Vector Direction',(0.,-1.,0.)) ;
#173=DIRECTION('Axis2P3D Direction',(0.,-1.,0.)) ;
#219=DIRECTION('Axis2P3D Direction',(0.,-1.,0.)) ;
#279=DIRECTION('Axis2P3D Direction',(0.,1.,-0.)) ;
#280=DIRECTION('Axis2P3D XDirection',(-1.,0.,0.)) ;
#284=DIRECTION('Vector Direction',(0.,1.,0.)) ;
#289=DIRECTION('Vector Direction',(0.,1.,0.)) ;
#315=DIRECTION('Axis2P3D Direction',(-0.,-1.,-0.)) ;
#316=DIRECTION('Axis2P3D XDirection',(-1.,0.,0.)) ;
#320=DIRECTION('Axis2P3D Direction',(-0.,-1.,-0.)) ;
#329=DIRECTION('Axis2P3D Direction',(-0.,-1.,-0.)) ;
#339=DIRECTION('Axis2P3D Direction',(0.,1.,-0.)) ;
#340=DIRECTION('Axis2P3D XDirection',(-1.,0.,0.)) ;
#344=DIRECTION('Axis2P3D Direction',(0.,1.,-0.)) ;
#353=DIRECTION('Axis2P3D Direction',(0.,1.,-0.)) ;
#363=DIRECTION('Vector Direction',(0.,-1.,0.)) ;
#368=DIRECTION('Vector Direction',(0.,-1.,0.)) ;
#390=DIRECTION('Axis2P3D Direction',(-0.,-1.,-0.)) ;
#399=DIRECTION('Axis2P3D Direction',(-0.,-1.,-0.)) ;
#409=DIRECTION('Axis2P3D Direction',(0.,1.,-0.)) ;
#418=DIRECTION('Axis2P3D Direction',(0.,1.,-0.)) ;
#428=DIRECTION('Vector Direction',(0.,1.,0.)) ;
#433=DIRECTION('Vector Direction',(0.,1.,0.)) ;
#310=SHAPE_REPRESENTATION_RELATIONSHIP(' ',' ',#19,#309) ;
#18=AXIS2_PLACEMENT_3D(' ',#17,$,$) ;
#34=AXIS2_PLACEMENT_3D('Plane Axis2P3D',#31,#32,#33) ;
#38=AXIS2_PLACEMENT_3D('Circle Axis2P3D',#36,#37,$) ;
#47=AXIS2_PLACEMENT_3D('Circle Axis2P3D',#45,#46,$) ;
#58=AXIS2_PLACEMENT_3D('Cylinder Axis2P3D',#55,#56,#57) ;
#156=AXIS2_PLACEMENT_3D('Cylinder Axis2P3D',#153,#154,#155) ;
#174=AXIS2_PLACEMENT_3D('Circle Axis2P3D',#172,#173,$) ;
#220=AXIS2_PLACEMENT_3D('Circle Axis2P3D',#218,#219,$) ;
#281=AXIS2_PLACEMENT_3D('Cylinder Axis2P3D',#278,#279,#280) ;
#317=AXIS2_PLACEMENT_3D('Plane Axis2P3D',#314,#315,#316) ;
#321=AXIS2_PLACEMENT_3D('Circle Axis2P3D',#319,#320,$) ;
#330=AXIS2_PLACEMENT_3D('Circle Axis2P3D',#328,#329,$) ;
#341=AXIS2_PLACEMENT_3D('Plane Axis2P3D',#338,#339,#340) ;
#345=AXIS2_PLACEMENT_3D('Circle Axis2P3D',#343,#344,$) ;
#354=AXIS2_PLACEMENT_3D('Circle Axis2P3D',#352,#353,$) ;
#391=AXIS2_PLACEMENT_3D('Circle Axis2P3D',#389,#390,$) ;
#400=AXIS2_PLACEMENT_3D('Circle Axis2P3D',#398,#399,$) ;
#410=AXIS2_PLACEMENT_3D('Circle Axis2P3D',#408,#409,$) ;
#419=AXIS2_PLACEMENT_3D('Circle Axis2P3D',#417,#418,$) ;
#63=LINE('Line',#60,#62) ;
#107=LINE('Line',#104,#106) ;
#161=LINE('Line',#158,#160) ;
#168=LINE('Line',#165,#167) ;
#286=LINE('Line',#283,#285) ;
#291=LINE('Line',#288,#290) ;
#365=LINE('Line',#362,#364) ;
#370=LINE('Line',#367,#369) ;
#430=LINE('Line',#427,#429) ;
#435=LINE('Line',#432,#434) ;
#39=CIRCLE('generated circle',#38,10.) ;
#48=CIRCLE('generated circle',#47,10.) ;
#175=CIRCLE('generated circle',#174,10.) ;
#221=CIRCLE('generated circle',#220,10.) ;
#322=CIRCLE('generated circle',#321,10.) ;
#331=CIRCLE('generated circle',#330,10.) ;
#346=CIRCLE('generated circle',#345,10.) ;
#355=CIRCLE('generated circle',#354,10.) ;
#392=CIRCLE('generated circle',#391,10.) ;
#401=CIRCLE('generated circle',#400,10.) ;
#411=CIRCLE('generated circle',#410,10.) ;
#420=CIRCLE('generated circle',#419,10.) ;
#35=PLANE('',#34) ;
#318=PLANE('',#317) ;
#342=PLANE('',#341) ;
#59=CYLINDRICAL_SURFACE('generated cylinder',#58,10.) ;
#157=CYLINDRICAL_SURFACE('generated cylinder',#156,10.) ;
#282=CYLINDRICAL_SURFACE('generated cylinder',#281,10.) ;
#44=EDGE_CURVE('',#41,#43,#39,.T.) ;
#49=EDGE_CURVE('',#43,#41,#48,.T.) ;
#68=EDGE_CURVE('',#65,#67,#63,.T.) ;
#84=EDGE_CURVE('',#83,#65,#69,.F.) ;
#103=EDGE_CURVE('',#102,#83,#85,.F.) ;
#110=EDGE_CURVE('',#102,#109,#107,.T.) ;
#129=EDGE_CURVE('',#109,#128,#111,.F.) ;
#143=EDGE_CURVE('',#128,#67,#130,.F.) ;
#164=EDGE_CURVE('',#163,#67,#161,.F.) ;
#171=EDGE_CURVE('',#170,#109,#168,.F.) ;
#176=EDGE_CURVE('',#170,#163,#175,.F.) ;
#200=EDGE_CURVE('',#109,#199,#185,.T.) ;
#217=EDGE_CURVE('',#199,#67,#201,.T.) ;
#222=EDGE_CURVE('',#163,#170,#221,.F.) ;
#254=EDGE_CURVE('',#253,#65,#236,.T.) ;
#268=EDGE_CURVE('',#102,#253,#255,.T.) ;
#287=EDGE_CURVE('',#43,#65,#286,.T.) ;
#292=EDGE_CURVE('',#41,#102,#291,.T.) ;
#327=EDGE_CURVE('',#324,#326,#322,.T.) ;
#332=EDGE_CURVE('',#326,#324,#331,.T.) ;
#351=EDGE_CURVE('',#348,#350,#346,.F.) ;
#356=EDGE_CURVE('',#350,#348,#355,.F.) ;
#366=EDGE_CURVE('',#348,#326,#365,.F.) ;
#371=EDGE_CURVE('',#350,#324,#370,.F.) ;
#397=EDGE_CURVE('',#394,#396,#392,.T.) ;
#402=EDGE_CURVE('',#396,#394,#401,.T.) ;
#416=EDGE_CURVE('',#413,#415,#411,.T.) ;
#421=EDGE_CURVE('',#415,#413,#420,.T.) ;
#431=EDGE_CURVE('',#415,#396,#430,.T.) ;
#436=EDGE_CURVE('',#413,#394,#435,.T.) ;
#30=CLOSED_SHELL('Closed Shell',(#54,#152,#184,#230,#235,#277,#300,#308)) ;
#313=CLOSED_SHELL('Closed Shell',(#337,#361,#378,#385)) ;
#388=CLOSED_SHELL('Closed Shell',(#407,#426,#443,#450)) ;
#51=ORIENTED_EDGE('',*,*,#44,.F.) ;
#52=ORIENTED_EDGE('',*,*,#49,.F.) ;
#145=ORIENTED_EDGE('',*,*,#68,.F.) ;
#146=ORIENTED_EDGE('',*,*,#84,.F.) ;
#147=ORIENTED_EDGE('',*,*,#103,.F.) ;
#148=ORIENTED_EDGE('',*,*,#110,.T.) ;
#149=ORIENTED_EDGE('',*,*,#129,.T.) ;
#150=ORIENTED_EDGE('',*,*,#143,.T.) ;
#178=ORIENTED_EDGE('',*,*,#164,.T.) ;
#179=ORIENTED_EDGE('',*,*,#143,.F.) ;
#180=ORIENTED_EDGE('',*,*,#129,.F.) ;
#181=ORIENTED_EDGE('',*,*,#171,.F.) ;
#182=ORIENTED_EDGE('',*,*,#176,.T.) ;
#224=ORIENTED_EDGE('',*,*,#171,.T.) ;
#225=ORIENTED_EDGE('',*,*,#200,.T.) ;
#226=ORIENTED_EDGE('',*,*,#217,.T.) ;
#227=ORIENTED_EDGE('',*,*,#164,.F.) ;
#228=ORIENTED_EDGE('',*,*,#222,.T.) ;
#232=ORIENTED_EDGE('',*,*,#176,.F.) ;
#233=ORIENTED_EDGE('',*,*,#222,.F.) ;
#270=ORIENTED_EDGE('',*,*,#254,.T.) ;
#271=ORIENTED_EDGE('',*,*,#68,.T.) ;
#272=ORIENTED_EDGE('',*,*,#217,.F.) ;
#273=ORIENTED_EDGE('',*,*,#200,.F.) ;
#274=ORIENTED_EDGE('',*,*,#110,.F.) ;
#275=ORIENTED_EDGE('',*,*,#268,.T.) ;
#294=ORIENTED_EDGE('',*,*,#287,.T.) ;
#295=ORIENTED_EDGE('',*,*,#254,.F.) ;
#296=ORIENTED_EDGE('',*,*,#268,.F.) ;
#297=ORIENTED_EDGE('',*,*,#292,.F.) ;
#298=ORIENTED_EDGE('',*,*,#44,.T.) ;
#302=ORIENTED_EDGE('',*,*,#292,.T.) ;
#303=ORIENTED_EDGE('',*,*,#103,.T.) ;
#304=ORIENTED_EDGE('',*,*,#84,.T.) ;
#305=ORIENTED_EDGE('',*,*,#287,.F.) ;
#306=ORIENTED_EDGE('',*,*,#49,.T.) ;
#334=ORIENTED_EDGE('',*,*,#327,.F.) ;
#335=ORIENTED_EDGE('',*,*,#332,.F.) ;
#358=ORIENTED_EDGE('',*,*,#351,.T.) ;
#359=ORIENTED_EDGE('',*,*,#356,.T.) ;
#373=ORIENTED_EDGE('',*,*,#366,.F.) ;
#374=ORIENTED_EDGE('',*,*,#356,.F.) ;
#375=ORIENTED_EDGE('',*,*,#371,.T.) ;
#376=ORIENTED_EDGE('',*,*,#327,.T.) ;
#380=ORIENTED_EDGE('',*,*,#371,.F.) ;
#381=ORIENTED_EDGE('',*,*,#351,.F.) ;
#382=ORIENTED_EDGE('',*,*,#366,.T.) ;
#383=ORIENTED_EDGE('',*,*,#332,.T.) ;
#404=ORIENTED_EDGE('',*,*,#397,.F.) ;
#405=ORIENTED_EDGE('',*,*,#402,.F.) ;
#423=ORIENTED_EDGE('',*,*,#416,.F.) ;
#424=ORIENTED_EDGE('',*,*,#421,.F.) ;
#438=ORIENTED_EDGE('',*,*,#431,.F.) ;
#439=ORIENTED_EDGE('',*,*,#421,.T.) ;
#440=ORIENTED_EDGE('',*,*,#436,.T.) ;
#441=ORIENTED_EDGE('',*,*,#397,.T.) ;
#445=ORIENTED_EDGE('',*,*,#436,.F.) ;
#446=ORIENTED_EDGE('',*,*,#416,.T.) ;
#447=ORIENTED_EDGE('',*,*,#431,.T.) ;
#448=ORIENTED_EDGE('',*,*,#402,.T.) ;
#50=EDGE_LOOP('',(#51,#52)) ;
#144=EDGE_LOOP('',(#145,#146,#147,#148,#149,#150)) ;
#177=EDGE_LOOP('',(#178,#179,#180,#181,#182)) ;
#223=EDGE_LOOP('',(#224,#225,#226,#227,#228)) ;
#231=EDGE_LOOP('',(#232,#233)) ;
#269=EDGE_LOOP('',(#270,#271,#272,#273,#274,#275)) ;
#293=EDGE_LOOP('',(#294,#295,#296,#297,#298)) ;
#301=EDGE_LOOP('',(#302,#303,#304,#305,#306)) ;
#333=EDGE_LOOP('',(#334,#335)) ;
#357=EDGE_LOOP('',(#358,#359)) ;
#372=EDGE_LOOP('',(#373,#374,#375,#376)) ;
#379=EDGE_LOOP('',(#380,#381,#382,#383)) ;
#403=EDGE_LOOP('',(#404,#405)) ;
#422=EDGE_LOOP('',(#423,#424)) ;
#437=EDGE_LOOP('',(#438,#439,#440,#441)) ;
#444=EDGE_LOOP('',(#445,#446,#447,#448)) ;
#21=MANIFOLD_SOLID_BREP('PartBody.1',#30) ;
#311=MANIFOLD_SOLID_BREP('PartBody.2',#313) ;
#386=MANIFOLD_SOLID_BREP('PartBody.3',#388) ;
#41=VERTEX_POINT('',#40) ;
#43=VERTEX_POINT('',#42) ;
#65=VERTEX_POINT('',#64) ;
#67=VERTEX_POINT('',#66) ;
#83=VERTEX_POINT('',#82) ;
#102=VERTEX_POINT('',#101) ;
#109=VERTEX_POINT('',#108) ;
#128=VERTEX_POINT('',#127) ;
#163=VERTEX_POINT('',#162) ;
#170=VERTEX_POINT('',#169) ;
#199=VERTEX_POINT('',#198) ;
#253=VERTEX_POINT('',#252) ;
#324=VERTEX_POINT('',#323) ;
#326=VERTEX_POINT('',#325) ;
#348=VERTEX_POINT('',#347) ;
#350=VERTEX_POINT('',#349) ;
#394=VERTEX_POINT('',#393) ;
#396=VERTEX_POINT('',#395) ;
#413=VERTEX_POINT('',#412) ;
#415=VERTEX_POINT('',#414) ;
#309=ADVANCED_BREP_SHAPE_REPRESENTATION('NONE',(#21,#311,#386),#16) ;
#54=ADVANCED_FACE('PartBody',(#53),#35,.F.) ;
#152=ADVANCED_FACE('PartBody',(#151),#59,.T.) ;
#184=ADVANCED_FACE('PartBody',(#183),#157,.T.) ;
#230=ADVANCED_FACE('PartBody',(#229),#157,.T.) ;
#235=ADVANCED_FACE('PartBody',(#234),#35,.F.) ;
#277=ADVANCED_FACE('PartBody',(#276),#59,.T.) ;
#300=ADVANCED_FACE('PartBody',(#299),#282,.T.) ;
#308=ADVANCED_FACE('PartBody',(#307),#282,.T.) ;
#337=ADVANCED_FACE('PartBody',(#336),#318,.F.) ;
#361=ADVANCED_FACE('PartBody',(#360),#342,.F.) ;
#378=ADVANCED_FACE('PartBody',(#377),#157,.T.) ;
#385=ADVANCED_FACE('PartBody',(#384),#157,.T.) ;
#407=ADVANCED_FACE('PartBody',(#406),#318,.F.) ;
#426=ADVANCED_FACE('PartBody',(#425),#342,.F.) ;
#443=ADVANCED_FACE('PartBody',(#442),#282,.T.) ;
#450=ADVANCED_FACE('PartBody',(#449),#282,.T.) ;
#4=APPLICATION_PROTOCOL_DEFINITION('international standard','ap242_managed_model_based_3d_engineering',2014,#1) ;
#69=B_SPLINE_CURVE_WITH_KNOTS('',5,(#70,#71,#72,#73,#74,#75,#76,#77,#78,#79,#80,#81),.UNSPECIFIED.,.F.,.U.,(6,3,3,6),(0.,8.130822087,14.5449172399,27.0115507967),.UNSPECIFIED.) ;
#85=B_SPLINE_CURVE_WITH_KNOTS('',5,(#86,#87,#88,#89,#90,#91,#92,#93,#94,#95,#96,#97,#98,#99,#100),.UNSPECIFIED.,.F.,.U.,(6,3,3,3,6),(27.0115507967,36.6439963193,45.1884684018,49.2931520533,54.0193961545),.UNSPECIFIED.) ;
#111=B_SPLINE_CURVE_WITH_KNOTS('',5,(#112,#113,#114,#115,#116,#117,#118,#119,#120,#121,#122,#123,#124,#125,#126),.UNSPECIFIED.,.F.,.U.,(6,3,3,3,6),(27.0115507967,36.6439963195,45.1884684025,49.293152054,54.0193961552),.UNSPECIFIED.) ;
#130=B_SPLINE_CURVE_WITH_KNOTS('',5,(#131,#132,#133,#134,#135,#136,#137,#138,#139,#140,#141,#142),.UNSPECIFIED.,.F.,.U.,(6,3,3,6),(0.,8.13082208637,14.5449172393,27.0115507967),.UNSPECIFIED.) ;
#185=B_SPLINE_CURVE_WITH_KNOTS('',5,(#186,#187,#188,#189,#190,#191,#192,#193,#194,#195,#196,#197),.UNSPECIFIED.,.F.,.U.,(6,3,3,6),(0.,8.13082208743,14.5449172404,27.0115507977),.UNSPECIFIED.) ;
#201=B_SPLINE_CURVE_WITH_KNOTS('',5,(#202,#203,#204,#205,#206,#207,#208,#209,#210,#211,#212,#213,#214,#215,#216),.UNSPECIFIED.,.F.,.U.,(6,3,3,3,6),(27.0115507977,36.6439963203,45.1884684032,49.2931520546,54.0193961557),.UNSPECIFIED.) ;
#236=B_SPLINE_CURVE_WITH_KNOTS('',5,(#237,#238,#239,#240,#241,#242,#243,#244,#245,#246,#247,#248,#249,#250,#251),.UNSPECIFIED.,.F.,.U.,(6,3,3,3,6),(27.011550797,36.6439963199,45.1884684028,49.2931520543,54.0193961554),.UNSPECIFIED.) ;
#255=B_SPLINE_CURVE_WITH_KNOTS('',5,(#256,#257,#258,#259,#260,#261,#262,#263,#264,#265,#266,#267),.UNSPECIFIED.,.F.,.U.,(6,3,3,6),(0.,8.13082208707,14.5449172401,27.011550797),.UNSPECIFIED.) ;
#22=COLOUR_RGB('Colour',0.823529411765,0.823529411765,1.) ;
#53=FACE_OUTER_BOUND('',#50,.T.) ;
#151=FACE_OUTER_BOUND('',#144,.T.) ;
#183=FACE_OUTER_BOUND('',#177,.T.) ;
#229=FACE_OUTER_BOUND('',#223,.T.) ;
#234=FACE_OUTER_BOUND('',#231,.T.) ;
#276=FACE_OUTER_BOUND('',#269,.T.) ;
#299=FACE_OUTER_BOUND('',#293,.T.) ;
#307=FACE_OUTER_BOUND('',#301,.T.) ;
#336=FACE_OUTER_BOUND('',#333,.T.) ;
#360=FACE_OUTER_BOUND('',#357,.T.) ;
#377=FACE_OUTER_BOUND('',#372,.T.) ;
#384=FACE_OUTER_BOUND('',#379,.T.) ;
#406=FACE_OUTER_BOUND('',#403,.T.) ;
#425=FACE_OUTER_BOUND('',#422,.T.) ;
#442=FACE_OUTER_BOUND('',#437,.T.) ;
#449=FACE_OUTER_BOUND('',#444,.T.) ;
#9=PRODUCT_CATEGORY_RELATIONSHIP(' ',' ',#7,#8) ;
#6=PRODUCT_DEFINITION_FORMATION_WITH_SPECIFIED_SOURCE('00',' ',#5,.NOT_KNOWN.) ;
#20=SHAPE_DEFINITION_REPRESENTATION(#11,#19) ;
#12=(LENGTH_UNIT()NAMED_UNIT(*)SI_UNIT(.MILLI.,.METRE.)) ;
#13=(NAMED_UNIT(*)PLANE_ANGLE_UNIT()SI_UNIT($,.RADIAN.)) ;
#14=(NAMED_UNIT(*)SI_UNIT($,.STERADIAN.)SOLID_ANGLE_UNIT()) ;
#16=(GEOMETRIC_REPRESENTATION_CONTEXT(3)GLOBAL_UNCERTAINTY_ASSIGNED_CONTEXT((#15))GLOBAL_UNIT_ASSIGNED_CONTEXT((#12,#13,#14))REPRESENTATION_CONTEXT(' ',' ')) ;
ENDSEC;
END-ISO-10303-21;
