ISO-10303-21;
HEADER;
FILE_DESCRIPTION(('CATIA V5 STEP Exchange','CAx-IF Rec.Pracs.--- Model Styling and Organization---1.5--- 2016-08-15','CAx-IF Rec.Pracs.---Supplemental Geometry---1.0---2011-11-01','CAx-IF Rec.Pracs.--- Composite Materials ---3.4---2017-06-13','CAx-IF Rec.Pracs.---Tessellated 3D Geometry---1.0---2015-12-17'),'2;1');

FILE_NAME('Q:\\Rendering\\SY\\SY090103.stp','2025-03-26T09:27:57+00:00',('none'),('none'),'CATIA Version 5-6 Release 2020 SP2','CATIA V5 STEP AP242 v2','none');

FILE_SCHEMA(('AP242_MANAGED_MODEL_BASED_3D_ENGINEERING_MIM_LF  {1 0 10303 442 1 1 4}'));

ENDSEC;
DATA;
#5=PRODUCT('SY090103','SY090103','',(#2)) ;
#2=PRODUCT_CONTEXT(' ',#1,'mechanical') ;
#1=APPLICATION_CONTEXT('managed model based 3d engineering') ;
#10=PRODUCT_DEFINITION('',' ',#6,#3) ;
#3=PRODUCT_DEFINITION_CONTEXT('part definition',#1,' ') ;
#11=PRODUCT_DEFINITION_SHAPE(' ',' ',#10) ;
#311=MECHANICAL_DESIGN_GEOMETRIC_PRESENTATION_REPRESENTATION(' ',(#29),#16) ;
#7=PRODUCT_CATEGORY('part','specification') ;
#19=SHAPE_REPRESENTATION(' ',(#18),#16) ;
#17=CARTESIAN_POINT(' ',(0.,0.,0.)) ;
#31=CARTESIAN_POINT('Axis2P3D Location',(-8.52651282912E-13,80.,0.)) ;
#36=CARTESIAN_POINT('Line Origine',(-8.52651282912E-13,70.,1.22464679915E-15)) ;
#40=CARTESIAN_POINT('Vertex',(-390.,70.,1.22464679915E-15)) ;
#42=CARTESIAN_POINT('Vertex',(390.,70.,1.22464679915E-15)) ;
#46=CARTESIAN_POINT('Control Point',(-390.,70.,5.3290705182E-15)) ;
#47=CARTESIAN_POINT('Control Point',(-390.,70.,-1.14987188689)) ;
#48=CARTESIAN_POINT('Control Point',(-390.16527567,70.1652756695,-2.29974318943)) ;
#49=CARTESIAN_POINT('Control Point',(-390.495733754,70.4957342091,-3.38097453745)) ;
#50=CARTESIAN_POINT('Control Point',(-391.292819206,71.2928188471,-5.12600760664)) ;
#51=CARTESIAN_POINT('Control Point',(-392.368147557,72.3681478403,-6.52998727877)) ;
#52=CARTESIAN_POINT('Control Point',(-392.88242292,72.8824231193,-7.08163010466)) ;
#53=CARTESIAN_POINT('Control Point',(-394.481999336,74.481998948,-8.5148025598)) ;
#54=CARTESIAN_POINT('Control Point',(-396.28087012,76.2808708741,-9.41759515642)) ;
#55=CARTESIAN_POINT('Control Point',(-397.506682407,77.5066634796,-9.80572806582)) ;
#56=CARTESIAN_POINT('Control Point',(-398.75333909,78.753334058,-9.99999987561)) ;
#57=CARTESIAN_POINT('Control Point',(-400.,79.9999990022,-10.)) ;
#58=CARTESIAN_POINT('Vertex',(-400.,80.,-9.99999993347)) ;
#62=CARTESIAN_POINT('Control Point',(-400.,79.9999990022,-10.)) ;
#63=CARTESIAN_POINT('Control Point',(-400.963242663,80.9632447819,-10.0000000961)) ;
#64=CARTESIAN_POINT('Control Point',(-401.926487849,81.926487198,-9.88401988822)) ;
#65=CARTESIAN_POINT('Control Point',(-402.880365569,82.880365951,-9.65207867099)) ;
#66=CARTESIAN_POINT('Control Point',(-404.645843582,84.6458432432,-8.98693483942)) ;
#67=CARTESIAN_POINT('Control Point',(-406.288006908,86.2880072082,-7.86074989065)) ;
#68=CARTESIAN_POINT('Control Point',(-407.022861221,87.0228617125,-7.22235978664)) ;
#69=CARTESIAN_POINT('Control Point',(-408.025960502,88.0259602663,-6.10336120574)) ;
#70=CARTESIAN_POINT('Control Point',(-408.836623034,88.8366231477,-4.72474939172)) ;
#71=CARTESIAN_POINT('Control Point',(-409.075989347,89.0759894555,-4.24999524488)) ;
#72=CARTESIAN_POINT('Control Point',(-409.529835178,89.5298350529,-3.17298222467)) ;
#73=CARTESIAN_POINT('Control Point',(-409.832302283,89.8323024269,-1.99276599667)) ;
#74=CARTESIAN_POINT('Control Point',(-409.944156542,89.9441565417,-1.33678350403)) ;
#75=CARTESIAN_POINT('Control Point',(-410.,90.,-0.668391850734)) ;
#76=CARTESIAN_POINT('Control Point',(-410.,90.,-2.22044604925E-15)) ;
#77=CARTESIAN_POINT('Vertex',(-410.,90.,0.)) ;
#80=CARTESIAN_POINT('Line Origine',(-8.52651282912E-13,90.,-2.44929359829E-15)) ;
#84=CARTESIAN_POINT('Vertex',(410.,90.,0.)) ;
#88=CARTESIAN_POINT('Control Point',(400.,79.9999990022,-10.)) ;
#89=CARTESIAN_POINT('Control Point',(400.963242663,80.9632447818,-10.0000000961)) ;
#90=CARTESIAN_POINT('Control Point',(401.926487849,81.9264871978,-9.88401988823)) ;
#91=CARTESIAN_POINT('Control Point',(402.88036557,82.8803659511,-9.65207867096)) ;
#92=CARTESIAN_POINT('Control Point',(404.645843582,84.6458432432,-8.98693483941)) ;
#93=CARTESIAN_POINT('Control Point',(406.288006908,86.2880072081,-7.86074989073)) ;
#94=CARTESIAN_POINT('Control Point',(407.022861221,87.0228617126,-7.22235978654)) ;
#95=CARTESIAN_POINT('Control Point',(408.025960502,88.0259602663,-6.10336120569)) ;
#96=CARTESIAN_POINT('Control Point',(408.836623034,88.8366231477,-4.72474939175)) ;
#97=CARTESIAN_POINT('Control Point',(409.075989347,89.0759894555,-4.24999524485)) ;
#98=CARTESIAN_POINT('Control Point',(409.529835178,89.5298350529,-3.17298222467)) ;
#99=CARTESIAN_POINT('Control Point',(409.832302283,89.8323024269,-1.9927659967)) ;
#100=CARTESIAN_POINT('Control Point',(409.944156542,89.9441565417,-1.33678350399)) ;
#101=CARTESIAN_POINT('Control Point',(410.,90.,-0.668391850715)) ;
#102=CARTESIAN_POINT('Control Point',(410.,90.,-2.75195750077E-15)) ;
#103=CARTESIAN_POINT('Vertex',(400.,80.,-9.99999993347)) ;
#107=CARTESIAN_POINT('Control Point',(390.,70.,5.3290705182E-15)) ;
#108=CARTESIAN_POINT('Control Point',(390.,70.,-1.14987188682)) ;
#109=CARTESIAN_POINT('Control Point',(390.16527567,70.1652756695,-2.29974318929)) ;
#110=CARTESIAN_POINT('Control Point',(390.495733754,70.4957342091,-3.38097453757)) ;
#111=CARTESIAN_POINT('Control Point',(391.292819206,71.2928188472,-5.12600760667)) ;
#112=CARTESIAN_POINT('Control Point',(392.368147557,72.3681478403,-6.52998727875)) ;
#113=CARTESIAN_POINT('Control Point',(392.88242292,72.8824231193,-7.08163010468)) ;
#114=CARTESIAN_POINT('Control Point',(394.481999336,74.481998948,-8.51480255979)) ;
#115=CARTESIAN_POINT('Control Point',(396.28087012,76.280870874,-9.41759515639)) ;
#116=CARTESIAN_POINT('Control Point',(397.506682407,77.5066634795,-9.80572806582)) ;
#117=CARTESIAN_POINT('Control Point',(398.75333909,78.753334058,-9.99999987561)) ;
#118=CARTESIAN_POINT('Control Point',(400.,79.9999990022,-10.)) ;
#129=CARTESIAN_POINT('Axis2P3D Location',(400.,45.,0.)) ;
#134=CARTESIAN_POINT('Line Origine',(410.,45.,-2.44929359829E-15)) ;
#138=CARTESIAN_POINT('Vertex',(410.,0.,0.)) ;
#141=CARTESIAN_POINT('Axis2P3D Location',(400.,0.,0.)) ;
#145=CARTESIAN_POINT('Vertex',(390.,0.,1.22464679915E-15)) ;
#148=CARTESIAN_POINT('Line Origine',(390.,45.,1.22464679915E-15)) ;
#161=CARTESIAN_POINT('Axis2P3D Location',(-400.,45.,0.)) ;
#166=CARTESIAN_POINT('Line Origine',(-410.,45.,0.)) ;
#170=CARTESIAN_POINT('Vertex',(-410.,0.,0.)) ;
#173=CARTESIAN_POINT('Axis2P3D Location',(-400.,0.,0.)) ;
#177=CARTESIAN_POINT('Vertex',(-390.,0.,1.22464679915E-15)) ;
#180=CARTESIAN_POINT('Line Origine',(-390.,45.,1.22464679915E-15)) ;
#186=CARTESIAN_POINT('Control Point',(-400.000000998,79.9999999998,10.)) ;
#187=CARTESIAN_POINT('Control Point',(-399.036755218,79.0367573372,10.0000000961)) ;
#188=CARTESIAN_POINT('Control Point',(-398.073512802,78.0735121511,9.88401988819)) ;
#189=CARTESIAN_POINT('Control Point',(-397.119634049,77.1196344303,9.65207867094)) ;
#190=CARTESIAN_POINT('Control Point',(-395.354156757,75.3541564182,8.98693483935)) ;
#191=CARTESIAN_POINT('Control Point',(-393.711992792,73.7119930919,7.86074989057)) ;
#192=CARTESIAN_POINT('Control Point',(-392.977138287,72.9771387786,7.2223597866)) ;
#193=CARTESIAN_POINT('Control Point',(-391.974039734,71.9740394977,6.10336120567)) ;
#194=CARTESIAN_POINT('Control Point',(-391.163376852,71.1633769655,4.72474939161)) ;
#195=CARTESIAN_POINT('Control Point',(-390.924010544,70.9240106531,4.24999524483)) ;
#196=CARTESIAN_POINT('Control Point',(-390.470164947,70.470164822,3.17298222466)) ;
#197=CARTESIAN_POINT('Control Point',(-390.167697573,70.1676977172,1.99276599669)) ;
#198=CARTESIAN_POINT('Control Point',(-390.055843458,70.0558434583,1.33678350391)) ;
#199=CARTESIAN_POINT('Control Point',(-390.,70.,0.668391850673)) ;
#200=CARTESIAN_POINT('Control Point',(-390.,70.,1.19764526597E-15)) ;
#201=CARTESIAN_POINT('Vertex',(-400.,79.9999999998,9.99999993347)) ;
#205=CARTESIAN_POINT('Control Point',(-410.,90.,-8.881784197E-16)) ;
#206=CARTESIAN_POINT('Control Point',(-410.,90.,1.14987188685)) ;
#207=CARTESIAN_POINT('Control Point',(-409.83472433,89.8347243305,2.29974318937)) ;
#208=CARTESIAN_POINT('Control Point',(-409.504265791,89.5042662462,3.38097453758)) ;
#209=CARTESIAN_POINT('Control Point',(-408.707181153,88.7071807936,5.12600760676)) ;
#210=CARTESIAN_POINT('Control Point',(-407.63185216,87.631852443,6.52998727887)) ;
#211=CARTESIAN_POINT('Control Point',(-407.117576881,87.1175770802,7.08163010469)) ;
#212=CARTESIAN_POINT('Control Point',(-405.518001052,85.5180006641,8.51480255984)) ;
#213=CARTESIAN_POINT('Control Point',(-403.719129126,83.7191298796,9.41759515644)) ;
#214=CARTESIAN_POINT('Control Point',(-402.49333652,82.4933175932,9.80572806586)) ;
#215=CARTESIAN_POINT('Control Point',(-401.246665942,81.2466609099,9.99999987564)) ;
#216=CARTESIAN_POINT('Control Point',(-400.000000998,79.9999999998,10.)) ;
#226=CARTESIAN_POINT('Axis2P3D Location',(0.,0.,0.)) ;
#231=CARTESIAN_POINT('Axis2P3D Location',(-400.,0.,0.)) ;
#241=CARTESIAN_POINT('Axis2P3D Location',(400.,0.,0.)) ;
#252=CARTESIAN_POINT('Control Point',(410.,90.,0.)) ;
#253=CARTESIAN_POINT('Control Point',(410.,90.,1.14987188698)) ;
#254=CARTESIAN_POINT('Control Point',(409.83472433,89.8347243304,2.29974318962)) ;
#255=CARTESIAN_POINT('Control Point',(409.504265791,89.5042662463,3.38097453741)) ;
#256=CARTESIAN_POINT('Control Point',(408.707181153,88.7071807936,5.1260076067)) ;
#257=CARTESIAN_POINT('Control Point',(407.63185216,87.631852443,6.5299872789)) ;
#258=CARTESIAN_POINT('Control Point',(407.117576881,87.1175770802,7.08163010472)) ;
#259=CARTESIAN_POINT('Control Point',(405.518001052,85.5180006641,8.51480255978)) ;
#260=CARTESIAN_POINT('Control Point',(403.719129126,83.7191298798,9.41759515636)) ;
#261=CARTESIAN_POINT('Control Point',(402.493336521,82.4933175934,9.80572806579)) ;
#262=CARTESIAN_POINT('Control Point',(401.246665942,81.2466609103,9.99999987558)) ;
#263=CARTESIAN_POINT('Control Point',(400.000000998,80.0000000002,10.)) ;
#264=CARTESIAN_POINT('Vertex',(400.,80.0000000002,9.99999993347)) ;
#268=CARTESIAN_POINT('Control Point',(400.000000998,80.0000000002,10.)) ;
#269=CARTESIAN_POINT('Control Point',(399.036755218,79.0367573375,10.0000000961)) ;
#270=CARTESIAN_POINT('Control Point',(398.073512802,78.0735121514,9.88401988825)) ;
#271=CARTESIAN_POINT('Control Point',(397.119634049,77.1196344304,9.65207867099)) ;
#272=CARTESIAN_POINT('Control Point',(395.354156757,75.3541564183,8.98693483942)) ;
#273=CARTESIAN_POINT('Control Point',(393.711992792,73.7119930921,7.86074989069)) ;
#274=CARTESIAN_POINT('Control Point',(392.977138287,72.9771387784,7.22235978637)) ;
#275=CARTESIAN_POINT('Control Point',(391.974039734,71.9740394977,6.10336120554)) ;
#276=CARTESIAN_POINT('Control Point',(391.163376852,71.1633769656,4.72474939165)) ;
#277=CARTESIAN_POINT('Control Point',(390.924010544,70.924010653,4.24999524471)) ;
#278=CARTESIAN_POINT('Control Point',(390.470164947,70.470164822,3.17298222458)) ;
#279=CARTESIAN_POINT('Control Point',(390.167697573,70.1676977172,1.99276599666)) ;
#280=CARTESIAN_POINT('Control Point',(390.055843458,70.0558434583,1.3367835039)) ;
#281=CARTESIAN_POINT('Control Point',(390.,70.,0.668391850668)) ;
#282=CARTESIAN_POINT('Control Point',(390.,70.,1.33226762955E-15)) ;
#8=PRODUCT_RELATED_PRODUCT_CATEGORY('part',$,(#5)) ;
#15=UNCERTAINTY_MEASURE_WITH_UNIT(LENGTH_MEASURE(0.005),#12,'distance_accuracy_value','CONFUSED CURVE UNCERTAINTY') ;
#29=STYLED_ITEM(' ',(#28),#21) ;
#28=PRESENTATION_STYLE_ASSIGNMENT((#27)) ;
#27=SURFACE_STYLE_USAGE(.BOTH.,#26) ;
#26=SURFACE_SIDE_STYLE(' ',(#25)) ;
#25=SURFACE_STYLE_FILL_AREA(#24) ;
#24=FILL_AREA_STYLE(' ',(#23)) ;
#23=FILL_AREA_STYLE_COLOUR(' ',#22) ;
#38=VECTOR('Line Direction',#37,1.) ;
#82=VECTOR('Line Direction',#81,1.) ;
#136=VECTOR('Line Direction',#135,1.) ;
#150=VECTOR('Line Direction',#149,1.) ;
#168=VECTOR('Line Direction',#167,1.) ;
#182=VECTOR('Line Direction',#181,1.) ;
#32=DIRECTION('Axis2P3D Direction',(1.,0.,0.)) ;
#33=DIRECTION('Axis2P3D XDirection',(0.,1.,0.)) ;
#37=DIRECTION('Vector Direction',(1.,0.,0.)) ;
#81=DIRECTION('Vector Direction',(1.,0.,0.)) ;
#130=DIRECTION('Axis2P3D Direction',(0.,-1.,0.)) ;
#131=DIRECTION('Axis2P3D XDirection',(1.,0.,0.)) ;
#135=DIRECTION('Vector Direction',(0.,-1.,0.)) ;
#142=DIRECTION('Axis2P3D Direction',(0.,-1.,0.)) ;
#149=DIRECTION('Vector Direction',(0.,-1.,0.)) ;
#162=DIRECTION('Axis2P3D Direction',(0.,1.,0.)) ;
#163=DIRECTION('Axis2P3D XDirection',(-1.,0.,0.)) ;
#167=DIRECTION('Vector Direction',(0.,1.,0.)) ;
#174=DIRECTION('Axis2P3D Direction',(0.,1.,0.)) ;
#181=DIRECTION('Vector Direction',(0.,1.,0.)) ;
#227=DIRECTION('Axis2P3D Direction',(0.,1.,-0.)) ;
#228=DIRECTION('Axis2P3D XDirection',(-1.,0.,0.)) ;
#232=DIRECTION('Axis2P3D Direction',(0.,1.,-0.)) ;
#242=DIRECTION('Axis2P3D Direction',(0.,1.,-0.)) ;
#310=SHAPE_REPRESENTATION_RELATIONSHIP(' ',' ',#19,#309) ;
#18=AXIS2_PLACEMENT_3D(' ',#17,$,$) ;
#34=AXIS2_PLACEMENT_3D('Cylinder Axis2P3D',#31,#32,#33) ;
#132=AXIS2_PLACEMENT_3D('Cylinder Axis2P3D',#129,#130,#131) ;
#143=AXIS2_PLACEMENT_3D('Circle Axis2P3D',#141,#142,$) ;
#164=AXIS2_PLACEMENT_3D('Cylinder Axis2P3D',#161,#162,#163) ;
#175=AXIS2_PLACEMENT_3D('Circle Axis2P3D',#173,#174,$) ;
#229=AXIS2_PLACEMENT_3D('Plane Axis2P3D',#226,#227,#228) ;
#233=AXIS2_PLACEMENT_3D('Circle Axis2P3D',#231,#232,$) ;
#243=AXIS2_PLACEMENT_3D('Circle Axis2P3D',#241,#242,$) ;
#39=LINE('Line',#36,#38) ;
#83=LINE('Line',#80,#82) ;
#137=LINE('Line',#134,#136) ;
#151=LINE('Line',#148,#150) ;
#169=LINE('Line',#166,#168) ;
#183=LINE('Line',#180,#182) ;
#144=CIRCLE('generated circle',#143,10.) ;
#176=CIRCLE('generated circle',#175,10.) ;
#234=CIRCLE('generated circle',#233,10.) ;
#244=CIRCLE('generated circle',#243,10.) ;
#230=PLANE('',#229) ;
#35=CYLINDRICAL_SURFACE('generated cylinder',#34,10.) ;
#133=CYLINDRICAL_SURFACE('generated cylinder',#132,10.) ;
#165=CYLINDRICAL_SURFACE('generated cylinder',#164,10.) ;
#44=EDGE_CURVE('',#41,#43,#39,.T.) ;
#60=EDGE_CURVE('',#59,#41,#45,.F.) ;
#79=EDGE_CURVE('',#78,#59,#61,.F.) ;
#86=EDGE_CURVE('',#78,#85,#83,.T.) ;
#105=EDGE_CURVE('',#85,#104,#87,.F.) ;
#119=EDGE_CURVE('',#104,#43,#106,.F.) ;
#140=EDGE_CURVE('',#139,#85,#137,.F.) ;
#147=EDGE_CURVE('',#146,#139,#144,.T.) ;
#152=EDGE_CURVE('',#146,#43,#151,.F.) ;
#172=EDGE_CURVE('',#171,#78,#169,.T.) ;
#179=EDGE_CURVE('',#171,#178,#176,.T.) ;
#184=EDGE_CURVE('',#178,#41,#183,.T.) ;
#203=EDGE_CURVE('',#202,#41,#185,.T.) ;
#217=EDGE_CURVE('',#78,#202,#204,.T.) ;
#235=EDGE_CURVE('',#178,#171,#234,.T.) ;
#245=EDGE_CURVE('',#139,#146,#244,.F.) ;
#266=EDGE_CURVE('',#85,#265,#251,.T.) ;
#283=EDGE_CURVE('',#265,#43,#267,.T.) ;
#30=CLOSED_SHELL('Closed Shell',(#128,#160,#225,#240,#250,#291,#299,#308)) ;
#121=ORIENTED_EDGE('',*,*,#44,.F.) ;
#122=ORIENTED_EDGE('',*,*,#60,.F.) ;
#123=ORIENTED_EDGE('',*,*,#79,.F.) ;
#124=ORIENTED_EDGE('',*,*,#86,.T.) ;
#125=ORIENTED_EDGE('',*,*,#105,.T.) ;
#126=ORIENTED_EDGE('',*,*,#119,.T.) ;
#154=ORIENTED_EDGE('',*,*,#140,.F.) ;
#155=ORIENTED_EDGE('',*,*,#147,.F.) ;
#156=ORIENTED_EDGE('',*,*,#152,.T.) ;
#157=ORIENTED_EDGE('',*,*,#119,.F.) ;
#158=ORIENTED_EDGE('',*,*,#105,.F.) ;
#219=ORIENTED_EDGE('',*,*,#172,.F.) ;
#220=ORIENTED_EDGE('',*,*,#179,.T.) ;
#221=ORIENTED_EDGE('',*,*,#184,.T.) ;
#222=ORIENTED_EDGE('',*,*,#203,.F.) ;
#223=ORIENTED_EDGE('',*,*,#217,.F.) ;
#237=ORIENTED_EDGE('',*,*,#235,.F.) ;
#238=ORIENTED_EDGE('',*,*,#179,.F.) ;
#247=ORIENTED_EDGE('',*,*,#245,.T.) ;
#248=ORIENTED_EDGE('',*,*,#147,.T.) ;
#285=ORIENTED_EDGE('',*,*,#152,.F.) ;
#286=ORIENTED_EDGE('',*,*,#245,.F.) ;
#287=ORIENTED_EDGE('',*,*,#140,.T.) ;
#288=ORIENTED_EDGE('',*,*,#266,.T.) ;
#289=ORIENTED_EDGE('',*,*,#283,.T.) ;
#293=ORIENTED_EDGE('',*,*,#184,.F.) ;
#294=ORIENTED_EDGE('',*,*,#235,.T.) ;
#295=ORIENTED_EDGE('',*,*,#172,.T.) ;
#296=ORIENTED_EDGE('',*,*,#79,.T.) ;
#297=ORIENTED_EDGE('',*,*,#60,.T.) ;
#301=ORIENTED_EDGE('',*,*,#203,.T.) ;
#302=ORIENTED_EDGE('',*,*,#44,.T.) ;
#303=ORIENTED_EDGE('',*,*,#283,.F.) ;
#304=ORIENTED_EDGE('',*,*,#266,.F.) ;
#305=ORIENTED_EDGE('',*,*,#86,.F.) ;
#306=ORIENTED_EDGE('',*,*,#217,.T.) ;
#120=EDGE_LOOP('',(#121,#122,#123,#124,#125,#126)) ;
#153=EDGE_LOOP('',(#154,#155,#156,#157,#158)) ;
#218=EDGE_LOOP('',(#219,#220,#221,#222,#223)) ;
#236=EDGE_LOOP('',(#237,#238)) ;
#246=EDGE_LOOP('',(#247,#248)) ;
#284=EDGE_LOOP('',(#285,#286,#287,#288,#289)) ;
#292=EDGE_LOOP('',(#293,#294,#295,#296,#297)) ;
#300=EDGE_LOOP('',(#301,#302,#303,#304,#305,#306)) ;
#21=MANIFOLD_SOLID_BREP('PartBody',#30) ;
#41=VERTEX_POINT('',#40) ;
#43=VERTEX_POINT('',#42) ;
#59=VERTEX_POINT('',#58) ;
#78=VERTEX_POINT('',#77) ;
#85=VERTEX_POINT('',#84) ;
#104=VERTEX_POINT('',#103) ;
#139=VERTEX_POINT('',#138) ;
#146=VERTEX_POINT('',#145) ;
#171=VERTEX_POINT('',#170) ;
#178=VERTEX_POINT('',#177) ;
#202=VERTEX_POINT('',#201) ;
#265=VERTEX_POINT('',#264) ;
#309=ADVANCED_BREP_SHAPE_REPRESENTATION('NONE',(#21),#16) ;
#128=ADVANCED_FACE('PartBody',(#127),#35,.T.) ;
#160=ADVANCED_FACE('PartBody',(#159),#133,.T.) ;
#225=ADVANCED_FACE('PartBody',(#224),#165,.T.) ;
#240=ADVANCED_FACE('PartBody',(#239),#230,.F.) ;
#250=ADVANCED_FACE('PartBody',(#249),#230,.F.) ;
#291=ADVANCED_FACE('PartBody',(#290),#133,.T.) ;
#299=ADVANCED_FACE('PartBody',(#298),#165,.T.) ;
#308=ADVANCED_FACE('PartBody',(#307),#35,.T.) ;
#4=APPLICATION_PROTOCOL_DEFINITION('international standard','ap242_managed_model_based_3d_engineering',2014,#1) ;
#45=B_SPLINE_CURVE_WITH_KNOTS('',5,(#46,#47,#48,#49,#50,#51,#52,#53,#54,#55,#56,#57),.UNSPECIFIED.,.F.,.U.,(6,3,3,6),(0.,8.13082208713,14.5449172402,27.0115507977),.UNSPECIFIED.) ;
#61=B_SPLINE_CURVE_WITH_KNOTS('',5,(#62,#63,#64,#65,#66,#67,#68,#69,#70,#71,#72,#73,#74,#75,#76),.UNSPECIFIED.,.F.,.U.,(6,3,3,3,6),(27.0115507977,36.6439963205,45.1884684036,49.2931520553,54.0193961567),.UNSPECIFIED.) ;
#87=B_SPLINE_CURVE_WITH_KNOTS('',5,(#88,#89,#90,#91,#92,#93,#94,#95,#96,#97,#98,#99,#100,#101,#102),.UNSPECIFIED.,.F.,.U.,(6,3,3,3,6),(27.0115507968,36.6439963191,45.1884684016,49.2931520532,54.0193961545),.UNSPECIFIED.) ;
#106=B_SPLINE_CURVE_WITH_KNOTS('',5,(#107,#108,#109,#110,#111,#112,#113,#114,#115,#116,#117,#118),.UNSPECIFIED.,.F.,.U.,(6,3,3,6),(0.,8.13082208664,14.5449172396,27.0115507968),.UNSPECIFIED.) ;
#185=B_SPLINE_CURVE_WITH_KNOTS('',5,(#186,#187,#188,#189,#190,#191,#192,#193,#194,#195,#196,#197,#198,#199,#200),.UNSPECIFIED.,.F.,.U.,(6,3,3,3,6),(27.0115507977,36.6439963201,45.1884684034,49.2931520552,54.0193961562),.UNSPECIFIED.) ;
#204=B_SPLINE_CURVE_WITH_KNOTS('',5,(#205,#206,#207,#208,#209,#210,#211,#212,#213,#214,#215,#216),.UNSPECIFIED.,.F.,.U.,(6,3,3,6),(0.,8.13082208691,14.5449172402,27.0115507977),.UNSPECIFIED.) ;
#251=B_SPLINE_CURVE_WITH_KNOTS('',5,(#252,#253,#254,#255,#256,#257,#258,#259,#260,#261,#262,#263),.UNSPECIFIED.,.F.,.U.,(6,3,3,6),(0.,8.13082208781,14.5449172411,27.0115507975),.UNSPECIFIED.) ;
#267=B_SPLINE_CURVE_WITH_KNOTS('',5,(#268,#269,#270,#271,#272,#273,#274,#275,#276,#277,#278,#279,#280,#281,#282),.UNSPECIFIED.,.F.,.U.,(6,3,3,3,6),(27.0115507975,36.6439963207,45.1884684028,49.2931520543,54.0193961552),.UNSPECIFIED.) ;
#22=COLOUR_RGB('Colour',0.823529411765,0.823529411765,1.) ;
#127=FACE_OUTER_BOUND('',#120,.T.) ;
#159=FACE_OUTER_BOUND('',#153,.T.) ;
#224=FACE_OUTER_BOUND('',#218,.T.) ;
#239=FACE_OUTER_BOUND('',#236,.T.) ;
#249=FACE_OUTER_BOUND('',#246,.T.) ;
#290=FACE_OUTER_BOUND('',#284,.T.) ;
#298=FACE_OUTER_BOUND('',#292,.T.) ;
#307=FACE_OUTER_BOUND('',#300,.T.) ;
#9=PRODUCT_CATEGORY_RELATIONSHIP(' ',' ',#7,#8) ;
#6=PRODUCT_DEFINITION_FORMATION_WITH_SPECIFIED_SOURCE('00',' ',#5,.NOT_KNOWN.) ;
#20=SHAPE_DEFINITION_REPRESENTATION(#11,#19) ;
#12=(LENGTH_UNIT()NAMED_UNIT(*)SI_UNIT(.MILLI.,.METRE.)) ;
#13=(NAMED_UNIT(*)PLANE_ANGLE_UNIT()SI_UNIT($,.RADIAN.)) ;
#14=(NAMED_UNIT(*)SI_UNIT($,.STERADIAN.)SOLID_ANGLE_UNIT()) ;
#16=(GEOMETRIC_REPRESENTATION_CONTEXT(3)GLOBAL_UNCERTAINTY_ASSIGNED_CONTEXT((#15))GLOBAL_UNIT_ASSIGNED_CONTEXT((#12,#13,#14))REPRESENTATION_CONTEXT(' ',' ')) ;
ENDSEC;
END-ISO-10303-21;
